Oops, an error
Loading. Please wait.

The Ark Bass Tab

4,542 views 1 this week
no commentswrite comment
1 2 3 4 5
please rate
add to favorites
launch autoscroll
font size
0
reset
guitar tuner
Tab Pro tools
  • play this tab
  • loop segment
  • change instrument
  • show fretboard
  • metronome
×
Best way to learn
"The Ark"
Autoscroll
slow
fast
+/-
esc
set tempo
stop
Contributor
Artist: Dr. Dog
Album: Fate (Park The Van Records 2008)
Song: The Ark
Tabbed by witmachine@yahoo.com

Complete tablature for bass.

INTRO               00:04
G |----------------|--------------------------------------------------|
D |-------3-3---3--|-------------------------3-3---3------------------|
A |-----------5----|-5-------5-------5--5--5-----5---5-------5--------|
E |----------------|-------5-------5-----------------------5-------5--|

G |-------------------------------------------------------------------|
D |----------3-3---3-------------------------3-3---3------------------|
A |--5--5--5-----5---5-------5-------5--5--5-----5---5-------5--------|
E |------------------------5-------5-----------------------5-------5--|


VERSE                00:18
G |-------------------------------------------------------------------|
D |----------3-3---3-------------------------3-3---3------------------|
A |--5--5--5-----5---5-------5-------5--5--5-----5---5-------5--------|
E |------------------------5-------5-----------------------5-------5--|
                     God                   He called for rain

G |-------------------------------------------------------------------|
D |----------3-3------------------------------------------------------|
A |--5--5--5-----5-5--------------------------------------------------|
E |------------------3-----3-3-----3-5-5-5-----------5-5-5------------|
                  So I built an ark when the rain came       I was

G |-----------------------------------|
D |--------------------------3-3---3--|
A |------------------------------5----|
E |--6--6--6-6--6--6-6--6--6----------|
     ashamed

G |-------------------------------------------------------------------|
D |--------------------------3-3---3-------------------------3-3---3--|
A |--5-------5-------5--5--5-----5---5-------5-------5--5--5-----5----|
E |--------5-------5-----------------------5-------5------------------|

    00:40
G |-------------------------------------------------------------------|
D |--------------------------3-3---3-------------------------3-3------|
A |--5-------5-------5--5--5-----5---5-------5-------5--5--5-----5-5--|
E |--------5-------5-----------------------5-------5------------------|
    Man                   He called for war

G |---------------------------------------------------|
D |---------------------------------------------------|
A |---------------------------------------------------|
E |--3-----3-3-----3-5-5-5-----------5-5-5------------|
             So I built a gun and I joined the corps

G |-----------------------------------|
D |--------------------------3-3---3--|
A |------------------------------5----|
E |--6--6--6-6--6--6-6--6--6----------|
       but I wasn't sure

G |-------------------------------------------------------------------|
D |--------------------------3-3---3-------------------------3-3---3--|
A |--5-------5-------5--5--5-----5---5-------5-------5--5--5-----5----|
E |--------5-------5-----------------------5-------5------------------|

    1:04
G |-------------------------------------------------------------------|
D |--------------------------3-3---3-------------------------3-3------|
A |--5-------5-------5--5--5-----5---5-------5-------5--5--5-----5-5--|
E |--------5-------5-----------------------5-------5------------------|
    Love                   She asked for more

G |---------------------------------------------------|
D |---------------------------------------------------|
A |---------------------------------------------------|
E |--3-----3-3-----3-5-5-5-----------5-5-5------------|
   But what, what I gave only made her poor

G |-----------------------------------|
D |--------------------------3-3---3--|
A |------------------------------5----|
E |--6--6--6-6--6--6-6--6--6----------|
           I wasn't sure
     1:19     
G |-------------------------------------------------------------------|
D |--------------------------3-3---3-------------------------3-3------|
A |--5-------5-------5--5--5-----5---5-------5-------5--5--5-----5-5--|
E |--------5-------5-----------------------5-------5------------------|
     The dove           She promised sand

G |---------------------------------------------------|
D |---------------------------------------------------|
A |---------------------------------------------------|
E |--3-----3-3-----3-5-5-5-----------5-5-5------------|
   As she laid the branch right into my hand

G |-----------------------------------|
D |-----------------------------------|
A |-----------------------------------|
E |--6--6--6-6--6--6-6--6--6-6--6--6--|
    There was no land

BRIDGE
G |----------7---------------7---------------6---------------6--------|
D |------7-----------7--7--7-------------7-----------7--7--7----------|
A |--5-------------------------------4--------------------------------|
E |-------------------------------------------------------------------|

     1:42
G |----------5---------------5----------------------------------------|
D |------7-----------7--7--7---------5--------------------------------|
A |--5-----------------------------------5----------------------------|
E |------------------------------------------3---3--------------------|
     What does it mean to be here??

G |------------------------------------------7---------------7--------|
D |--------------------------------------7---------------7------------|
A |----------------------------------5----------5---------------------|
E |--6---6---6---6---5-5-5--------------------------------------------|
     Well I know because I can & I will

G |-----------------------------------|
D |-----------------------------------|
A |-----------------------------------|
E |--6---6---6---6---5-5-5------------|
     Well I know because I can & I will

SOLO
G |-------------------------------------------------------------------|
D |--------------------------3-3---3-------------------------3-3---3--|
A |--5-------5-------5--5--5-----5---5-------5-------5--5--5-----5----|
E |--------5-------5-----------------------5-------5------------------|

G |-------------------------------------------------------------------|
D |--------------------------3-3---3-------------------------3-3------|
A |--5-------5-------5--5--5-----5---5-------5-------5--5--5-----5----|
E |--------5-------5-----------------------5-------5------------------|
     2:14
G |-------------------------------------------------------------------|
D |-------------------------------------------------------------------|
A |-------------------------------------------------------------------|
E |--3-----3-3-----3-5-5-5-----------5-5-5-----------6-6-6---------6--|

G |-------------------|
D |----------3-3---3--|
A |--------------5----|
E |--6--6--6----------|

G |-------------------------------------------------------------------|
D |--------------------------3-3---3-------------------------3-3------|
A |--5-------5-------5--5--5-----5---5-------5-------5--5--5-----5-5--|
E |--------5-------5-----------------------5-------5------------------|
      2:30
G |-------------------------------------------------------------------|
D |-------------------------------------------------------------------|
A |-------------------------------------------------------------------|
E |--3-----3-3-----3-5-5-5-----------5-5-5-----------6--6--6-6--6--6--|

G |-------------------||
D |-------------------||
A |-------------------||
E |--6--6--6----------||

  2:39
G |----------7---------------7---------------6---------------6--------|
D |------7---------------7---------------7---------------7------------|
A |--5-----------5-------------------4-----------4--------------------|
E |-------------------------------------------------------------------|


G |----------5---------------5----------------------------------------|
D |------7---------------7-----------5--------------------------------|
A |--5-----------5-----------------------5----------------------------|
E |------------------------------------------3---3--------------------|
     What does it mean to be here??

G |-------------------------------------------------------------------|
D |-------------------------------------------------------------------|
A |----------------------------------5---------------5---5------------|
E |--6---6---6---6---5-5-5-------------------------5---------------5--|
     Well I know because I can & I will

G |-----------------------------------|
D |-----------------------------------|
A |--5---------------5---5------------|
E |----------------5------------------|


G |----------7---------------7---------------6---------------6--------|
D |------7---------------7---------------7---------------7------------|
A |--5-----------5-------------------4-----------4--------------------|
E |-------------------------------------------------------------------|


G |----------5---------------5----------------------------------------|
D |------7---------------7-----------5--------------------------------|
A |--5-----------5-----------------------5----------------------------|
E |------------------------------------------3---3--------------------|
     What does it mean to be here??

G |------------------------------------------7---------------7--------|
D |--------------------------------------7---------------7------------|
A |----------------------------------5----------5---------------------|
E |--6---6---6---6---5-5-5--------------------------------------------|
     Well I know because I can & I will

G |-----------------------------------|
D |-----------------------------------|
A |-----------------------------------|
E |--6---6---6---6---5-5-5------------|
     Yes I know because I can & I will....
comments
We did not receive enough feedback on this tab! Please rate:
print report bad tab
1 2 3 4 5
I want to post or [tab]
guest
You may want to rate the tab now too:
select rating
Please do not post tabs as comments. Select "correction" instead!