Oops, an error
Loading. Please wait.

The Breeze Tab

12,361 views 33 this week
1 commentread comment
1 2 3 4 5
excellent!
x 4
add to favorites
launch autoscroll
font size
0
reset
how to read this tab
guitar tuner
Tab Pro tools
  • play this tab
  • loop segment
  • change instrument
  • show fretboard
  • metronome
×
Best way to learn
"The Breeze"
Autoscroll
slow
fast
+/-
esc
set tempo
stop
Contributor
Difficulty
intermediate
Song: The Breeze
Album: Fate (2008)


Tabbed by: Sam Fielder
Based on tab by: Taylor Berce	(Thanks!)


Tuning: Standard

Chords used:
A - x02220
Amaj7 - x02120
A7 - x02020
C#7 - x46464
D - x57775
D(b5) - x56775
E - 022100
E7 - 020130

The song opens with a random picking out of an open A chord.

I tried to work out the intro picking pattern as best as I could here as the rest
of the song follows the various patterns in the intro.

Intro:
----------------|----------------|----------------|----------------|
----2-----------|2----------2----|2----------2----|2-2--------2----|
-----------2----|--2----2--------|--2----2--------|------2---------|
----2-------2---|----2--------2--|----2-------2---|----2-------2---|
0-------0-------|0-------0-------|0-------0-------|0-------0-------|
----------------|----------------|----------------|----------------|

----------------|----------------|----------------|----------------|0
-------2--------|2------2-2------|-------22-------|2------2--------|
-----2-----2----|--2-----------2-|------2---2-----|--2-------2-----|
---2---------2--|----2-------2---|----2-------2---|----2-------2---|
0-------0-------|0-------0-------|0-------0-------|0-------0-------|0
----------------|----------------|----------------|----------------|

Rest of song conitunes here and roughly follows these patterns.

A		             Amaj7
Are you moving much too fast?
A7		              C#7
And the good times that just don't last
D			                   D(b5)
If you're always on the go
E		                   E7
Make an angel in the snow
    A
And freeze

A		             Amaj7
Do you feel like you're stuck in time?
A7		              C#7
Forever waiting on that line
D			                   D(b5)
If nothing ever moves
E		                   E7
Put that needle to the groove
    A
And sing

oooooo.oooooo......aaah....aaah


A		             Amaj7
Is it a dream keeping you awake?
A7		              C#7
Is it the stillness that makes you shake?
D			                   D(b5)
If you need to know for sure
E		                   E7
What's on the ocean's floor
       A
You'll sink

A		             Amaj7
Do you like things the way they seem?
A7		              C#7
Or are you looking behind the scenes?
D			                   D(b5)
Well, if you've gotta know
E		                   E7
What it takes to make it so
     A
Just believe

Are there dark parts to your mind?
Hidden secrets left behind?
Where no one ever goes
But everybody knows
It's all right

A		             Amaj7
Do you get dizzy on the ground?
A7		              C#7
It must be something going 'round
D			                   D(b5)
What blows us here today
E		                   E7
It'll blow us all away,
     A
The breeze

A   Amaj7
Ahh, will blow us all away
       A
The breeze
A   Amaj7
Ahh, will blow us all away
       A
The breeze

Ends with 

e|---5-------------5------------4------------4------------------------------|
B|------5-------------5------------5------------5---------------------------|
G|---------6-------------6------------6------------6------------------------|
D|------------7-------------7------------6------------6---------------------|
A|--------------------------------------------------------------------------|
E|--------------------------------------------------------------------------|
comments
print report bad tab
1 comment total.
0 reply
bonbon56 wrote on March 1 2012, 12:48 am

Great work!

I want to post or [tab]
guest
You may want to rate the tab now too:
select rating
Please do not post tabs as comments. Select "correction" instead!