Oops, an error
Loading. Please wait.

The Old Days Tab

version 2
version 2

Whole song

236 views 1 this week
no commentswrite comment
1 2 3 4 5
please rate
add to favorites
launch autoscroll
font size
0
reset
how to read this tab
guitar tuner
Tab Pro tools
  • play this tab
  • loop segment
  • change instrument
  • show fretboard
  • metronome
×
Best way to learn
"The Old Days"
Autoscroll
slow
fast
+/-
esc
set tempo
stop
Difficulty
Capo
intermediate
3rd fret
-------------------------------------------------------------------------------
                             THE OLD DAYS - Dr. Dog
-------------------------------------------------------------------------------
Tabbed by:Chris Hazewski
E-mail:chrishazewski@gmail.com

Tuning:Standard

I figured this out in standard tuning without a capo, but from what I know about Dr. Dog, I would guess that
this was written on a guitar, capo 3rd fret (Eb Major) and applied to piano.

   Eb              Eb               Bb              Bb   
e|---------3---------------3-------------------------------------------------|
B|-------4---4---4-------4---4---4--------3-6-3---3-------3-6-3---3----------|
G|-----3-------3-------3-------3--------3-------3-------3-------3------------|
D|---5---------------5----------------3---------------3----------------------|
A|-6---------------6---------------------------------------------------------|
E|----------------------------------6---------------6------------------------|

Chromatic Bb7 piano riff (1:32):

e|-13-13-13-12-11-10---13-13-13-12-11-10--13-13-13-12-13-14-15-16-15-14-13-12-11-10| X2
B|---------------------------------------------------------------------------------|
G|---------------------------------------------------------------------------------|
D|---------------------------------------------------------------------------------|
A|---------------------------------------------------------------------------------|
E|---------------------------------------------------------------------------------|

Play intro riff double time.
Freak out, Dr. Dog style.
End

Verse: Eb Bb
Chorus: Cm Bb


************************************

| /   slide up
| \   slide down
| h   hammer-on
| p   pull-off
| ~   vibrato
| +   harmonic
| x   Mute note
| b   Bend
| pb  Pre-bend
| br  Bend release
| pbr Pre-bend release
| brb Bend release bend

************************************
comments
We did not receive enough feedback on this tab! Please rate:
print report bad tab
1 2 3 4 5
I want to post or [tab]
guest
You may want to rate the tab now too:
select rating
Please do not post tabs as comments. Select "correction" instead!