Oops, an error
Loading. Please wait.

The Rabbit The Bat And The Reindeer Bass Tab

1,023 views 3 this week
no commentswrite comment
1 2 3 4 5
please rate
add to favorites
launch autoscroll
font size
0
reset
guitar tuner
Tab Pro tools
  • play this tab
  • loop segment
  • change instrument
  • show fretboard
  • metronome
Autoscroll
slow
fast
+/-
esc
set tempo
stop
Contributor
Difficulty
novice
THE RABBIT, THE BAT, AND THE REINDEER By DR. DOG
Bass Tab by Matthew of Seastroke

   x x x x   x x x x   x x x x   x x x x
G|---------|---------|---------|---------|
D|---------|---------|5--------|---------|
A|5--------|---------|-3~~~~~~~|~~~~~~~~~|
E|-3~~~~~~~|~~~~~~~~~|---------|---------|

   x x x x   x x x x   x x x x   x x x x
G|---------|---------|------3-3|---------|
D|------3-3|------3-3|-------5-|-3--3-3-3|
A|-1--1--5-|-1--1--5-|-1--1----|-------5-| x2
E|---------|---------|---------|---------|

   x x x x   x x x x   x x x x   x     x     x     x
G|---------|---------|---------|-------------------------|
D|-5~~~~~~~|---------|---------|/10-10-10-10-10-10-10-10-|
A|---------|---------|-3~~~~~~~|-------------------------|
E|---------|-3~~~~~5-|---------|-------------------------|

   x x x x   x x x x   x x x x   x x x x
G|---------|---------|---------|---------|
D|-8--87---|75--5----|---------|---------|
A|---------|-----8---|86---6-6-|-8---8-8-|
E|---------|---------|------6--|------8--|

   x x x x   x x x x   x x x x   x x x x
G|---------|---------|---------|---------|
D|-88-8~~--|-88-8~~--|-88-8~~--|-88-8~~--|
A|-------8~|~------8~|~------8~|~------8~| x2
E|---------|---------|---------|---------|

   x x x x   x x x x   x x x x   x x x x
G|---------|---------|---------|---------|   \
D|-88-8~~--|-88-8~~--|-88-8~~--|-88-8~~--|    |
A|-------8~|~------8~|~------8~|~------8~|    |
E|---------|---------|---------|---------|    |
                                              | x2
   x x x x   x x x x   x x x x   x x x x      |
G|---------|---------|---------|---------|    |
D|-88-8~~--|-77-7~~--|---------|---------|    |
A|~------8~|~------8~|~66-6~~--|-88-8~~--|    |
E|---------|---------|-------6~|~------8~|   /

   x x x x   x x x x
G|---------|---------|
D|---------|---------|
A|---------|---------|
E|---------|---------|

   x x x x   x x x x   x x x x   x x x x
G|---------|---------|------3-3|---------|
D|------3-3|------3-3|-------5-|-3--3-3-3|
A|-1--1--5-|-1--1--5-|-1--1----|-------5-| x2
E|---------|---------|---------|---------|

   x x x x   x x x x   x x x x   x     x     x     x
G|---------|---------|---------|-------------------------|
D|-5~~~~~~~|---------|---------|/10-10-10-10-10-10-10-10-|
A|---------|---------|-3~~~~~~~|-------------------------|
E|---------|-3~~~~~5-|---------|-------------------------|

   x x x x   x x x x   x x x x   x x x x
G|---------|---------|---------|---------|
D|-8--87---|75--5----|---------|---------|
A|---------|-----8---|86---6-6-|-8---8-8-|
E|---------|---------|------6--|------8--|

   x x x x   x x x x   x x x x   x x x x    x x x x
G|---------|---------|---------|---------||---------|
D|-8\------|---------|---------|---------||---------|
A|---------|---------|---------|---------||---------|
E|---------|---------|---------|---------||-6\------|

...Should we pretend
That its the end?
Are you my curse?
Are you my friend?
And if we got hit...

   x x x x   x x x x   x x x x   x x x x
G|---------|---------|---------|---------|
D|-88-8~~--|-88-8~~--|-88-8~~--|-88-8~~--|
A|-------8~|~------8~|~------8~|~------8~| x2
E|---------|---------|---------|---------|

   x x x x   x x x x   x x x x   x x x x
G|---------|---------|---------|---------|
D|/8/8/8/8-|/8/8/8/8-|/8/8/8/8-|/8/8/8/8-|
A|---------|---------|---------|---------|
E|---------|---------|---------|---------|

   x x x x   x x x x   x x x x   x x x x
G|---------|---------|---------|---------|
D|/8/8/8/8-|/8/8/85--|/8/8/8/8-|/8/8/85--|
A|---------|-------8-|---------|-------8-|
E|---------|---------|---------|---------|

   x x x x   x x x x   x x x x   x x x x
G|---------|---------|---------|---------|
D|---------|---------|---------|---------|
A|-1-1-x-1-|-1-1-x-1-|-3-3-x-3-|-3-3-x-3-|
E|---------|1--------|1--------|3--------|

   x x x x   x x x x   x x x x   x x x x
G|---------|---------|---------|---------|
D|---------|---------|---------|---------|
A|-5-5-x-5-|-5-5-x-5-|-6-6-x-6-|-6-6-x-6-|
E|3--------|5--------|5--------|6--------|

   x x x x   x x x x   x x x x   x x x x
G|---------|---------|---------|---------|
D|-88-8~~--|-88-8~~--|-88-8~~--|-88-8~~--|
A|-------8~|~------8~|~------8~|~------8~| (until the end)
E|---------|---------|---------|---------|
comments
We did not receive enough feedback on this tab! Please rate:
print report bad tab
1 2 3 4 5
I want to post or [tab]
guest
You may want to rate the tab now too:
select rating
Please do not post tabs as comments. Select "correction" instead!