Oops, an error
Loading. Please wait.

The Truth tab

by Dr. Dog
4,046 views 9 this week
3 commentsread comments
1 2 3 4 5
x 9
add to favorites
×
Save as Personal and add changes to this tab that will be seen only by you. Learn more ›
×
You can save this tab as Personal to edit and correct it or add notes. All changes will be seen only by you. Learn more »
launch autoscroll
font size
0
reset
how to read this tab
guitar tuner
edit
Autoscroll
slow
fast
+/-
esc
set tempo
stop
Author
Difficulty
-------------------------------------------------------------------------------
                              THE TRUTH - Dr. Dog
-------------------------------------------------------------------------------
Tabbed by: Chun
E-mail: jackiewantsablackeye@aol.com

Tuning: Standard

The little thingy at the beginning if anyone wanna play it
e|--10\9-7-5/7-9-------------------------------------------------------------|
B|---------------------------------------------------------------------------|
G|---------------------------------------------------------------------------|
D|---------------------------------------------------------------------------|
A|---------------------------------------------------------------------------|
E|---------------------------------------------------------------------------|

Riff 1
e|-5-2-5-5-2-5--2-5-2-5-5-2-9------------------------------------------------|
B|---------------------------------------------------------------------------|
G|---------------------------------------------------------------------------|
D|---------------------------------------------------------------------------|
A|---------------------------------------------------------------------------|
E|---------------------------------------------------------------------------|

e|-5-2-5-2-------------------------------------------------------------------|
B|---------5-2---------------------------------------------------------------|
G|-------------4-2-4---------------------------------------------------------|
D|-------------------4-------------------------------------------------------|
A|---------------------------------------------------------------------------|
E|---------------------------------------------------------------------------|

Riff 2
e|------------------------2--------------------------------------------------|
B|--------2-------2-3-2----5-2-5---3-2---------------------------------------|
G|-2--2-4--4----4----------------------4-2-----------------------------------|
D|---------------------------------------------------------------------------|
A|---------------------------------------------------------------------------|
E|---------------------------------------------------------------------------|

e|---------------------------------------------------------------------------|
B|-----2------2-3-2---2-3-4-3-2----------------------------------------------|
G|-2-4--4---4--------------------4-2-----------------------------------------|
D|-----------------------------------4-2-------------------------------------|
A|---------------------------------------4-----------------------------------|
E|---------------------------------------------------------------------------|

************************************

| /   slide up
| \   slide down

************************************



Riff 1 x2
end with e|-5-2-5-----|

A                Bm    C#m          Bm
The truth don't stop, it makes you move
A           Bm    C#m       Bm
Round and round, like the moon

              A                    Bm                 C#m                    Bm
It's coming down, the truth don't stop. It's really coming, the truth don't stop
              A                     Bm            C#m                  Bm                E
It's falling hard, the truth don't stop. Another day, the truth don't stop, thunder and lightening 

Riff 2

A            Bm  C#m          Bm
The devil's done, I pay my dues 
A                  Bm  C#m                 Bm
But it just won't quit, he don't like to lose 

              A                    Bm                 C#m                    Bm
It's coming down, the truth don't stop. It's really coming, the truth don't stop
              A                     Bm            C#m                  Bm                E
It's falling hard, the truth don't stop. Another day, the truth don't stop, thunder and lightening 

A             Bm
Let the rain fall
*play A, Bm in between with Riff 1 in the background (optional)

A    : {0 0 2 2 2 0} 
Bm   : {2 2 4 4 3 2} 
C#m  : {4 4 6 6 5 4} 
E    : {0 2 2 1 0 0} 



Please email me if you have any questions or corrections.
Thanks :D

            
            
Suggest correction
Creating personal tab
Creating personal tab
You can edit any tab online and save it as your Personal.

You can edit, replace or remove any tab part or add personal notes – all changes will be seen only by you.

Personal tabs can be accessed anytime from any device, even offline.
Learn more »
comments
print report bad tab
3 comments total.
+1 reply
pizzamcrib 10 Feb 26, 2014 05:35 PM

I think the 2nd part of the 2nd Riff should look like this. Otherwise, nice job on a great song!

e|---------------------------------------------------------------------------|
B|-----2------2-3-2---2-3-5-3-2----------------------------------------------|
G|-2-4--4---4--------------------4-2-----------------------------------------|
D|-----------------------------------4-2-------------------------------------|
A|---------------------------------------4-----------------------------------|
E|---------------------------------------------------------------------------|

0 reply
Joe_Jags 10 Jun 29, 2014 07:12 AM

Been watching a few of the Dr. Dog live performances of this song and it seems like they play the intro slightly different. Granted, I've only been playing about 7 months so cut me some slack if I am a little mistaken. To the best of my ability this is what I got out of it:

e|--9--9-9--9-----9--9-9--12--------9--9-----------------------------------
B|---10---10----10-10---10-----------10-10---------------------------------
G|----------------------------------------11-9-----------------------------
D|--------------------------------------------11-9-11-4--------------------
A|-------------------------------------------------------------------------E|-------------------------------------------------------------------------

0 reply
Joe_Jags 10 Jun 29, 2014 07:13 AM, edited at 11:13 am

Been watching a few of the Dr. Dog live performances of this song and it seems like they play the intro slightly different. Granted, I've only been playing about 7 months so cut me some slack if I am a little mistaken. To the best of my ability this is what I got out of it:e|--9--9-9--9-----9--9-9--12--------9--9-----------------------------------B|---10---10----10-10---10-----------10-10---------------------------------G|----------------------------------------11-9-----------------------------D|--------------------------------------------11-9-11-4--------------------A|-------------------------------------------------------------------------
E|-------------------------------------------------------------------------

guest
You may want to rate the tab now too:
select rating
Wanna post a correction for this tab? Suggest correction