Oops, an error
Loading. Please wait.

The Way The Lazy Do Bass Tab

629 views 1 this week
no commentswrite comment
1 2 3 4 5
please rate
add to favorites
launch autoscroll
font size
0
reset
guitar tuner
Tab Pro tools
  • play this tab
  • loop segment
  • change instrument
  • show fretboard
  • metronome
×
Best way to learn
"The Way The Lazy Do"
Autoscroll
slow
fast
+/-
esc
set tempo
stop
Contributor
Difficulty
intermediate
THE WAY THE LAZY DO By DR. DOG
Bass Tab by Matthew of Seastroke

INTRO ------------------------------------------------------

Lyin on
Your Back
In the Night
So Black

Dreamin of
Sweet love
Just beneath
Above

   x   x  x  x   x x x x   x  x  x  x   x x x x
G|-------------|---------|-1----------|---------|
D|-8-----------|---------|--3-1-------|---------|
A|--10-8--6----|-----6-6-|-----3------|----3----| x2
E|-------6-----|----6----|-------4----|-----4-4-|

VERSE ------------------------------------------------------

   x x x x   x x x x   x x x x   x x x x
G|---------|---------|---------|---------|
D|---------|---------|---------|---------|
A|-666-----|-6-6-----|6--------|6--------| x2
E|6--------|6--------|-4444----|-4-4-----|

   x x x x   x x x x   x x x x   x x x x
G|---------|---------|---------|---------|
D|5--------|5--------|---------|---------|
A|-333-----|-333-----|6--------|6--------| x2
E|---------|---------|-444-----|-444-----|

   x x x x   x x x x   x x x x   x x x x
G|---------|---------|---------|---------|
D|---------|---------|---------|---------|
A|-666-----|-666-----|-444-----|-666-----|
E|6--------|6--------|4--------|6--------|

CHORUS -----------------------------------------------------

   x x x x   x x x x   x x x x   x x x x
G|---------|---5-7-8-|---------|---5-7-8-|
D|-6---6---|-8-------|-6---6---|-8-------|
A|6---6----|6--------|----6----|6--------|
E|---------|---------|---------|---------|

   x x x x   x x x x   x x x x   x x x x
G|---------|---------|---------|---------|
D|-8---8---|-6---6---|---------|---------|
A|----8----|6---6----|-6---6---|-4---4---|
E|---------|---------|----6----|4---4----|

   x x x x   x x x x   x x x x   x x x x
G|---------|---5-7-8-|---------|---5-7-8-|
D|-6---6---|-8-------|-6---6---|-8-------|
A|----6----|6--------|----6----|6--------|
E|---------|---------|---------|---------|

   x x x x   x x x x
G|---------|---------|
D|-8---8---|-6-6-6-6-|
A|----8----|6--------|
E|---------|---------|

BRIDGE -----------------------------------------------------

   x   x  x  x   x x x x   x  x  x  x   x x x x
G|-------------|---------|-1----------|---------|
D|-8-----------|---------|--3-1-------|---------|
A|--10-8--6----|-----6-6-|-----3------|----3----| x2
E|-------6-----|----6----|-------4----|-----4-4-|

VERSE ------------------------------------------------------

   x x x x   x x x x   x x x x   x x x x
G|---------|---------|---------|---------|
D|---------|---------|---------|---------|
A|-6666----|-6-6-----|6--------|6--------|
E|6--------|6--------|-444-----|-4-4-----|

   x x x x   x x x x   x x x x   x x x x
G|---------|---------|---------|---------|
D|---------|---------|---------|-6-6-----|
A|-666-----|-6-6-----|6--------|6--------|
E|6--------|6--------|-444-----|---------|

   x x x x   x x x x   x x x x   x x x x
G|---------|---------|---------|---------|
D|5--------|5--------|-666-----|-666-----|
A|-333-----|-333-----|6--------|6--------| x2
E|---------|---------|---------|---------|

   x x x x   x x x x   x x x x   x x x x
G|---------|---------|---------|---------|
D|---------|---------|---------|---------|
A|-666-----|-666-----|-444-----|-666-----|
E|6--------|6--------|4--------|6--------|

CHORUS -----------------------------------------------------

   x x x x   x x x x   x x x x   x x x x
G|---------|---5-7-8-|---------|---5-7-8-|
D|-6---6---|-8-------|-6---6---|-8-------|
A|6---6----|6--------|----6----|6--------|
E|---------|---------|---------|---------|

   x x x x   x x x x   x x x x   x x x x
G|---------|---------|---------|---------|
D|-8---8---|-6---6-6-|---------|---------|
A|----8----|6---6----|-6---6---|-4---4-4-|
E|---------|---------|----6----|4---4----|

   x x x x   x x x x   x x x x   x x x x
G|---------|---5-7-8-|---------|---5-7-8-|
D|-6---6---|-8-------|-6---6---|-8-------|
A|----6----|6--------|----6----|6--------|
E|---------|---------|---------|---------|

   x x x x   x x x x
G|---------|---------|---------|
D|-8---8---|-6-6-6-6-|---------|
A|----8----|6--------|-6~~~~~~~|
E|---------|---------|---------|

OUTRO ------------------------------------------------------

Ooooh-ah ooooh-ah...
The way the lazy do...

   x x x x   x x x x   x x x x   x x x x
G|---------|---------|---------|---------|
D|----8----|----8----|---------|---------|
A|-----6~~~|-----6~~~|----6----|----6----| x4
E|---------|---------|-----4~~~|-----4~~~|

     x x x x     x x x x     x x x x     x x x x
G|-----------|-----------|-----------|-----------|
D|-----------|-----------|-----------|-----------|
A|10\333-----|10\333-----|10\--------|10\--------|
E|-----------|-----------|---444-----|---444-----|

   x x x x
G|---------|
D|---------|
A|-6~~~~~~~|
E|4--------|
comments
We did not receive enough feedback on this tab! Please rate:
print report bad tab
1 2 3 4 5
I want to post or [tab]
guest
You may want to rate the tab now too:
select rating
Please do not post tabs as comments. Select "correction" instead!