Oops, an error
Loading. Please wait.

These Days tab

by Dr. Dog
595 views 24 this week
no commentswrite comment
1 2 3 4 5
3 more votes to show rating
add to favorites
×
Save as Personal and add changes to this tab that will be seen only by you. Learn more ›
×
You can save this tab as Personal to edit and correct it or add notes. All changes will be seen only by you. Learn more »
launch autoscroll
font size
0
reset
how to read this tab
guitar tuner
edit
Autoscroll
slow
fast
+/-
esc
set tempo
stop
[Intro]
00:00 - 00:13: [Riff 1], repeat x 8
e|-------------------------|
B|-------------------------|
G|---12-9----9-------------| Gtr 1
D|-9------12---12-9-10-9---|
A|-------------------------|
E|-------------------------|   
                           
e|-------------------------|
B|-------------------------|
G|-------------------------| Gtr 2
D|---12-9----9-------------|
A|-9------12---12-10-12-10-|
E|-------------------------|


00:14 - 00:25: [Riff 2], repeat x 4
e|---------------------|-----------------|
B|---------------------|-----------------|
G|-12-9----9----9------|-12-9----9----9--| Gtr 1
D|------12---12---12-9-|------12---12----|
A|---------------------|-----------------|
E|---------------------|-----------------|

e|----------------------|----------------|
B|----------------------|----------------|
G|----------------------|----------------| Gtr 2
D|-12-9----9----9-------|-12-9----9----9-|
A|------12---12---12-10-|------12---12---|
E|----------------------|----------------|


00:26 - 00:30: [Riff 3], repeat once
e|-15-12----12-------------|-15-12----12-------|       
B|-------15----15-12-13-12-|-------15----15-12-|       
G|-------------------------|-------------------| Gtr 1 
D|-------------------------|-------------------|       
A|-------------------------|-------------------|       
E|-------------------------|-------------------|       
                                     
e|-------------------------|-------------------|       
B|-15-12----12-------------|-15-12----12----12-|       
G|-------14----14-12-14-12-|-------14----14----| Gtr 2 
D|-------------------------|-------------------|       
A|-------------------------|-------------------|       
E|-------------------------|-------------------|       


00:31 - 00:36: [Riff 4], repeat once                        
e|-8-5---5---------8-5---5---5-|
B|-----8---8-5-6-5-----8---8---|
G|-----------------------------| Gtr 1
D|-----------------------------|
A|-----------------------------|
E|-----------------------------|

e|-----------------------------|
B|-8-5---5-------8-5---5-------|
G|-----7---7-5-7-----7---7-5-7-| Gtr 2
D|-----------------------------|
A|-----------------------------|
E|-----------------------------|


00:36 - 00:41: [Riff 5], repeat once
e|----15-12----12----12-------|-15-12----12-------|       
B|-12-------15----15----15-12-|-------15----15-12-|       
G|----------------------------|-------------------| Gtr 1
D|----------------------------|-------------------|
A|----------------------------|-------------------|
E|----------------------------|-------------------|

e|----------------------------|-------------------|
B|----15-12----12----12-------|-15-12----12----12-|       
G|-12-------14----14----14-12-|-------14----14----| Gtr 2 
D|----------------------------|-------------------|
A|----------------------------|-------------------|
E|----------------------------|-------------------|


00:41 - 00:46: [Riff 6], repeat once                        
e|---8-5---5---5------8-5---5--5-|
B|-5-----8---8---8-5-----8---8---|
G|-------------------------------| Gtr 1
D|-------------------------------|
A|-------------------------------|
E|-------------------------------|

e|-------------------------------|
B|---8-5---5---5-----8-5---5---5-|
G|-5-----7---7---7-5-----7---7---| Gtr 2
D|-------------------------------|
A|-------------------------------|
E|-------------------------------|

00:46 - vocal enter

[Verse 1]
G
I don't wanna waste time; I don't wanna wait here
                 C
Deciding whether we should stay or leave baby
G
Why you wanna go now? I don't wanna go now
                C
Even though our friends are gone and the lights are on
A7
Aw, you keep saying nobody cares if I'm here except me

Well baby, that's

[Verse 2]
G
I don't wanna let go; People they get so old
                   C
I hate when people say "those were the days", oh what are these then?
G
I really should have stayed home, so many people I don't really know anymore
                     C
And I got nothing to say but "I don't know", I just get so bored
A7
Over and over I get impatient and angry when I feel like I've gone soft
C
It's such a drag, I just get dumber and dumber I can't talk, I can't talk.


[Riff 3]
e|-15-12----12-------------|-15-12----12-------|       
B|-------15----15-12-13-12-|-------15----15-12-|       
G|-------------------------|-------------------| Gtr 1 
D|-------------------------|-------------------|       
A|-------------------------|-------------------|       
E|-------------------------|-------------------|       
                                     
e|-------------------------|-------------------|       
B|-15-12----12-------------|-15-12----12----12-|       
G|-------14----14-12-14-12-|-------14----14----| Gtr 2 
D|-------------------------|-------------------|       
A|-------------------------|-------------------|       
E|-------------------------|-------------------|       


[Riff 4]
e|-8-5---5---------8-5---5---5-|
B|-----8---8-5-6-5-----8---8---|
G|-----------------------------| Gtr 1
D|-----------------------------|
A|-----------------------------|
E|-----------------------------|

e|-----------------------------|
B|-8-5---5-------8-5---5-------|
G|-----7---7-5-7-----7---7-5-7-| Gtr 2
D|-----------------------------|
A|-----------------------------|
E|-----------------------------|


[Riff 5]
e|----15-12----12----12-------|-15-12----12-------|       
B|-12-------15----15----15-12-|-------15----15-12-|       
G|----------------------------|-------------------| Gtr 1
D|----------------------------|-------------------|
A|----------------------------|-------------------|
E|----------------------------|-------------------|

e|----------------------------|-------------------|
B|----15-12----12----12-------|-15-12----12----12-|       
G|-12-------14----14----14-12-|-------14----14----| Gtr 2 
D|----------------------------|-------------------|
A|----------------------------|-------------------|
E|----------------------------|-------------------|


[Riff 6]
e|---8-5---5---5------8-5---5--5-|
B|-5-----8---8---8-5-----8---8---|
G|-------------------------------| Gtr 1
D|-------------------------------|
A|-------------------------------|
E|-------------------------------|

e|-------------------------------|
B|---8-5---5---5-----8-5---5---5-|
G|-5-----7---7---7-5-----7---7---| Gtr 2
D|-------------------------------|
A|-------------------------------|
E|-------------------------------|

[Verse 3]
G
Oh I don't wanna let go; People they get so old
                   C
I hate when people say "those were the days" but what do I know?
G
Why you wanna go now? I don't wanna go now
               C
Even though my friends are gone and the music's off
A7
Oh you keep saying nobody cares if I'm here except me

G

            
            
Suggest correction
Creating personal tab
Creating personal tab
You can edit any tab online and save it as your Personal.

You can edit, replace or remove any tab part or add personal notes – all changes will be seen only by you.

Personal tabs can be accessed anytime from any device, even offline.
Learn more »
Give kudos to tab author, rate the tab!
1 2 3 4 5
comments
print report bad tab
guest
You may want to rate the tab now too:
select rating
Wanna post a correction for this tab? Suggest correction