Oops, an error
Loading. Please wait.

Turning The Century Tab

version 1
version 1

Whole song

4,356 views 12 this week
1 commentread comment
1 2 3 4 5
please rate
add to favorites
launch autoscroll
font size
0
reset
how to read this tab
guitar tuner
Autoscroll
slow
fast
+/-
esc
set tempo
stop
Help us to improve Ultimate-Guitar.com Take our survey!
×
Author
Difficulty
Tuning
novice
D A D F# A D
The tuning in this song is basically an open D, but if you want 

to play both parts with ease, then keep your high E and your B 

the same

Tuning: D A D F# B E

Legend
h - hammer on/pull off
b - bend

LEAD GUITAR:
E |-10-------------9h-10------|----------------|
B |---------------------------|--6--7----------|
F#|o--------------------------|----------------|
D |o--------------------------|----------------|
A |---------------------------|----------------|
D |---------------------------|----------------|

|----------------------------|------|
|--8--------9--10----8-------|--7---|
|----------------------------|-----o|
|----------------------------|-----o|
|----------------------------|------|
|----------------------------|------|


|----------|----------|----------------|-------|
|--5--3----|--2--0----|--5--3--2--0----|-------|
|----------|----------|----------------|--3----|
|----------|----------|----------------|-------|
|----------|----------|----------------|-------|
|----------|----------|----------------|-------|


|----------------------------|
|----------------------------|
|O----------------0---------O|
|O-------0-----------0------O|
|----------------------------|
|--0-----------0-------------|

Timing on this is wrong, notes are right. Listen to the song to 

see when to come in.
|----------------|----------------|-------||
|-----------5b---|--3--------5b---|--3----||
|----------------|----------------|-------||
|----------------|----------------|-------||
|----------------|----------------|-------||
|----------------|----------------|-------||

RHYTHM GUITAR:
Repeat 8x before lead guitar enters
|----------------------------|
|----------------------------|
|O----------------12--------O|
|O-------12----------12-----O|
|----------------------------|
|--12----------12------------|

Play this after lead guitar enters
|----------------------------|
|----------------------------|
|O----------------0---------O|
|O-------0-----------0------O|
|----------------------------|
|--0-----------0-------------|

Thats about as much as I could figure out. I might update later 

if I can figure out some other parts to it.
Suggest correction
Give kudos to tab author, rate the tab!
1 2 3 4 5
comments
print report bad tab
1 comment total.
0 reply
sk8rats 39 wrote on September 27 2014, 08:41 pm

nice tab over all

one mistake I noticed is, here it actually ends on the second fret on the g not the third fret
|----------|----------|----------------|-------|
|--5--3----|--2--0----|--5--3--2--0----|-------|
|----------|----------|----------------|--2----|
|----------|----------|----------------|-------|
|----------|----------|----------------|-------|
|----------|----------|----------------|-------|

guest
You may want to rate the tab now too:
select rating
Wanna post a correction for this tab? Suggest correction