Oops, an error
Loading. Please wait.

Wake Up Bass Tab

919 views 1 this week
no commentswrite comment
1 2 3 4 5
3 more votes to show rating
add to favorites
launch autoscroll
font size
0
reset
guitar tuner
Autoscroll
slow
fast
+/-
esc
set tempo
stop
Help us to improve Ultimate-Guitar.com Take our survey!
×
Author
Tabbed By :Alexis Ruiz
e-mail:

Tuning:Standard
Intro
G|---------------------------------------------------------------------------|
D|-------------------------------------7-6-4-4---4--4---2--------------------|
A|-------------------3--4--0-4-4---------------4-----------2-----------------|
E|--0-----------------------------4--5------------------------0--------------|
Chorus
G|-------------------------------------------------------------------|
D|------------------------------------------------------------2------|
A|------0----0----0-----0-----0----0----0----0--------------4---4----|
E|--4------4----4-----4---4------4----4----4---4-0-0--------------0--|
Ending
G|-------------------------------------------------------|
D|--14-----12-----11-----14-----13-----11-----13-----14--|
A|-------------------------------------------------------|
E|-------------------------------------------------------|
Suggest correction
Give kudos to tab author, rate the tab!
1 2 3 4 5
comments
print report bad tab
guest
You may want to rate the tab now too:
select rating
Wanna post a correction for this tab? Suggest correction