Oops, an error
Loading. Please wait.

Weekend Bass Tab

1,549 views 1 this week
no commentswrite comment
1 2 3 4 5
2 more votes to show rating
add to favorites
launch autoscroll
font size
0
reset
guitar tuner
Autoscroll
slow
fast
+/-
esc
set tempo
stop
Help us to improve Ultimate-Guitar.com Take our survey!
×
Author
Weekend
Dr. Dog
We All Belong
Park the Van 2007
tabbed by witmachine@yahoo.com


Bass:

 Verse
|--------------------------------|--------------------------------|
|7-----7-------7-------7---------|7-----7-------7-------7---------|
|----7-------7-------7-------7-9-|----7-------7-------7-------7---|
|--9-------9-------9-------9-----|--9-------9-------9-------9-----|

|--------------------------------|--------------------------------|
|9-----9-------9-------11---9----|9-----9-------9-------------6---|
|----9-------9-------9--------9--|----9-------9---7---7---9-------|
|--10------10------10------------|--10------10--------------------|


 Chorus
|--------------------------------|
|--------------------------------|
|------9-------------------------|
|--------------------------------|
we're all here

|--------------------------------|
|--------------------------------|
|------------5-------------------|
|--------------------------------|
we're coming home soon


 Outro
|--------------------------------|--------------------------------|
|7-----7-------7-------7---------|4-------------4-3-------------3-|
|----7-------7-------7-----------|------------4---------------4---|
|--9-------9-------9-------------|--------------------------------|

|--------------------------------|--------------------------------|
|2-------------2-1---------------|--------------------------------|
|------------4-------------------|5---------------5--5------------|
|--------------------------------|--------------------------------|


|--------------------------------|--------------------------------|
|--------------------------------|--------------------------------|
|5---------------5--5------------|7-------------7-------7---------|
|--------------------------------|----------7-9-----7-9-----7-7-9-|


Verse
	The weekend is coming soon
	well its time to pick yourself up off the floor
	Well lets grab a case of lager and some old beat up shoes
	Head down to the river, and strap on a canoe

	We got every kind of good year coming down
	you just grab your benjaminz and try and suss somehow ???
	we'll play the songs we always always sing
	i can take the tenor line, you can take the lead

Chorus
	we're all here
	we're coming home soon

Verse
	weekend is coming soon
	well lets stop watching tv washing dishes too
	we've all the time in the weekdays have gone done day
	so lets spend it all like salad days just pretend we all got paid 

Chorus
	we're all here
	we're coming home soon

Outro
	well i know just what to do
	cuz ive been here before
	yes i have 
	well i have
	well ive been here before
	yes ive been here before
	well ive been here before
	cuz ive been here!


|1-e-+-a-2-e-+-a-3-e-+-a-4-e-+-a-|1-e-+-a-2-e-+-a-3-e-+-a-4-e-+-a-
|--------------------------------|--------------------------------|
|--------------------------------|--------------------------------|
|--------------------------------|--------------------------------|
|--------------------------------|--------------------------------|
Suggest correction
Give kudos to tab author, rate the tab!
1 2 3 4 5
comments
print report bad tab
guest
You may want to rate the tab now too:
select rating
Wanna post a correction for this tab? Suggest correction