Oops, an error
Loading. Please wait.

Whered All The Time Go Bass Tab

2,036 views 18 this week
no commentswrite comment
1 2 3 4 5
excellent!
x 2
add to favorites
launch autoscroll
font size
0
reset
guitar tuner
Tab Pro tools
  • play this tab
  • loop segment
  • change instrument
  • show fretboard
  • metronome
Autoscroll
slow
fast
+/-
esc
set tempo
stop
Contributor
Difficulty
intermediate
WHERE’D ALL THE TIME GO? By DR. DOG
Bass Tab by Matthew of Seastroke

VERSE -----------------------------------------------------

  X x x x   x X x  x    X x x x   X  x  x   x
G|--------|---7-------|---------|-7------------|
D|--------|-9---9h7---|---------|--9p7---------|
A|5~~~~~~~|--------9h7|-5-5~~~~/|------10-9-7h9|
E|--------|-----------|---------|--------------|

  x  X  x X   x X x X  x X x X   x X x x
G|----------|--------|---------|---------|
D|----------|--------|---------|---------|
A|10-10-9-9-|-7-7-5--|---------|---------|
E|----------|------02|-3-3-2-2-|-0-0-2-5-|

  X x x x   x X x  x    X x x x   X  x  x   x
G|--------|---7-------|---------|-7------------|
D|--------|-9---9h7---|---------|--9p7---------|
A|5~~~~~~~|7-------9h7|-5-5~~~~/|------10-9-7h9|
E|--------|-----------|---------|--------------|

  x  X  x X   x X x X  x X x X   x X x x
G|----------|--------|---------|---------|
D|----------|--------|---------|---------|
A|10-10-9-9-|-7-7-5--|---------|-------5-|
E|----------|------02|-3-3-2-2-|-0-0-2---|

BRIDGE ----------------------------------------------------

   x x x x   x x x x   x x x x   x x x  x  
G|---------|---------|---------|-----------|
D|---------|-----9~~~|~7~~~~~~~|~~~~~---7h9|
A|-7~~~~~~~|~~~~~----|---------|-----7h9---|
E|---------|---------|---------|-----------|

   x x x x   x x x  x    x x x x   x x x x
G|---------|-----------|---------|---------|
D|---------|--------7h9|---------|---------|
A|-5~~~~~~~|~~~~~7h9---|-5~~~~~~~|~-~-~----|
E|---------|-----------|---------|---------|

VERSE -----------------------------------------------------

  X x x x   x X x  x    X x x x   X  x  x   x
G|--------|---7-------|---------|-7------------|
D|--------|-9---9h7---|---------|--9p7---------|
A|5~~~~~~~|7-------9h7|-5-5~~~~/|------10-9-7h9|
E|--------|-----------|---------|--------------|

  x  X  x X   x X x X  x X x X   x X x x
G|----------|--------|---------|---------|
D|----------|--------|---------|---------|
A|10-10-9-9-|-7-7-5--|---------|---------|
E|----------|------02|-3-3-2-2-|-0-0-2-5-|

  X x x x   x X x  x    X x x x   X  x  x   x
G|--------|---7-------|---------|-7------------|
D|--------|-9---9h7---|---------|--9p7---------|
A|5~~~~~~~|7-------9h7|-5-5~~~~/|------10-9-7h9|
E|--------|-----------|---------|--------------|

  x  X  x X   x X x X  x X x X   x X x x
G|----------|--------|---------|---------|
D|----------|--------|---------|---------|
A|10-10-9-9-|-7-7-5--|---------|-------5-|
E|----------|------02|-3-3-2-2-|-0-0-2---|

BRIDGE ----------------------------------------------------

   x x x x   x x x x   x x x x   x x x  x  
G|---------|---------|---------|-----------|
D|---------|-----9~~~|~7~~~~~~~|~~~~~---7h9|
A|-7~~~~~~~|~~~~~----|---------|-----7h9---|
E|---------|---------|---------|-----------|
   x x x x   x x x  x    x x x x   x x x x
G|---------|-----------|---------|---------|
D|---------|--------7h9|---------|---------|
A|-5-5-5-5-|-5-5-7h9---|-5-5-5-5-|-5-5-5-5-|
E|---------|-----------|---------|---------|

   x x x x   x x x x   x x x x   x x x x  
G|---------|---------|---------|---------|
D|---------|-----9~~~|~7~~~~~~~|~~~~~~~~~|
A|-7~~~~~~~|~~~~~----|---------|---------|
E|---------|---------|---------|---------|

CHORUS ----------------------------------------------------

   x x x x   x x x x   x x x x   x x x x
G|---------|---------|---------|---------|
D|-5-5-5-5-|-5-5-5-5-|-4-4-4---|---------|
A|---------|---------|-------2~|~~~2-2-2-| x3
E|---------|---------|---------|---------|

   x x x x   x x x x   x x x x   x x x x   x x x x   x x x  x
G|---------|---------|---------|---------|---------|-----------|
D|-5-5-5-5-|-5-5-5-5-|-77777777|-77777777|-77777777|-7777---7h9|
A|---------|---------|---------|---------|---------|-----7h9---|
E|---------|---------|---------|---------|---------|-----------|

POST-CHORUS -----------------------------------------------

   x x x x   x x x  x    x x x x   x x x  x
G|---------|-----------|---------|-----------|
D|---------|--------7h9|---------|--------7h9|
A|-5-5-5-5-|-5-5-7h9---|-5-5-5-5-|-5-5-7h9---|
E|---------|-----------|---------|-----------|
   x x x x   x x x  x    x x x x   x x x  x
G|---------|-----------|---------|-----------|
D|---------|--------7h9|---------|--------7-7|
A|-5-5-5-5-|-5-5-7h9---|-5-5-5-5-|-5-5-7h9---|
E|---------|-----------|---------|-----------|

VERSE -----------------------------------------------------

  X x x x   x X x  x    X x x x   X  x  x   x
G|--------|---7-------|---------|-7------------|
D|--------|-9---9h7---|---------|9-9p7---------|
A|5~~~~~~~|7-------9h7|-5-5~~~~/|------10-9-7h9|
E|--------|-----------|---------|--------------|

  x  X  x X   x X x X  x X x X   x X x x
G|----------|--------|---------|---------|
D|----------|--------|---------|---------|
A|10-10-9-9-|-7-7-5--|---------|---------|
E|----------|------02|-3-3-2-2-|-0-0-2-5-|

  X x x x   x X x  x    X x x x   X  x  x   x
G|--------|---7-------|---------|-7------------|
D|--------|-9---9h7---|---------|--9p7---------|
A|5~~~~~~~|7-------9h7|-5-5~~~~/|------10-9-7h9|
E|--------|-----------|---------|--------------|

  x  X  x X   x X x X  x X x X   x X x x
G|----------|--------|---------|---------|
D|----------|--------|---------|---------|
A|10-10-9-9-|-7-7-5--|---------|-------5-|
E|----------|------02|-3-3-2-2-|-0-0-2---|

BRIDGE ----------------------------------------------------

   x x x x   x x x x   x x x x   x x x  x  
G|---------|---------|---------|-----------|
D|---------|-----9~~~|~7~~~~~~~|~~~~~---7h9|
A|-7~~~~~~~|~~~~~----|---------|-----7h9---|
E|---------|---------|---------|-----------|

   x x x x   x x x  x    x x x x   x x x x
G|---------|-----------|---------|---------|
D|---------|--------7h9|---------|---------|
A|-5-5-5-5-|-5-5-7h9---|-5-5-5-5-|-5-5-5-5-|
E|---------|-----------|---------|---------|

   x x x x   x x x x   x x x x   x x x x  
G|---------|---------|---------|---------|
D|---------|-----9~~~|~7~~~~~~~|~~~~~~~~~|
A|-7~~~~~~~|~~~~~----|---------|---------|
E|---------|---------|---------|---------|

CHORUS ----------------------------------------------------

   x x x x   x x x x   x x x x   x x x x
G|---------|---------|---------|---------|
D|-5-5-5-5-|-5-5-5-5-|-4-4-4---|---------|
A|---------|---------|-------2~|~~~2-2-2-| x3
E|---------|---------|---------|---------|

   x x x x   x x x x   X x x x   X x x x   X x x x   X x x x
G|---------|---------|---------|---------|---------|---------|
D|-5-5-5-5-|-5-5-5-5-|-77777777|-77777777|-77777777|-77777777|
A|---------|---------|---------|---------|---------|---------|
E|---------|---------|---------|---------|---------|---------|

OUTRO -----------------------------------------------------

  x  x  x x   x x x x  x  x  x x   x x x x
G|----------|---------|----------|---------|
D|---7h9----|---------|---7h9----|---------|
A|7h9---5-5-|-5-5-5-5-|7h9---5-5-|-5-5-5-5-| x4
E|----------|---------|----------|---------|
comments
We did not receive enough feedback on this tab! Please rate:
print report bad tab
1 2 3 4 5
I want to post or [tab]
guest
You may want to rate the tab now too:
select rating
Please do not post tabs as comments. Select "correction" instead!