Oops, an error
Loading. Please wait.

World May Never Know Bass Tab

version 1
version 1

Whole song

Interactive

3,106 views 1 this week
1 commentread comment
1 2 3 4 5
please rate
add to favorites
launch autoscroll
font size
0
reset
guitar tuner
Tab Pro tools
  • play this tab
  • loop segment
  • change instrument
  • show fretboard
  • metronome
×
Best way to learn
"World May Never Know"
Autoscroll
slow
fast
+/-
esc
set tempo
stop
Contributor
The World May Never Know
Dr. Dog
Easy Beat (2004)
tabbed by: witmachine@yahoo.com

Complete tablature for electric bass

  INTRO
||-----------------|----------------|----------------|----------------|
||-------------2---|------------2---|------------2---|------------2---|
||-0---0---2-4-----|0---0---2-4-----|0---0---2-4-----|0---0---2-4-----|
||-----------------|----------------|----------------|----------------|


  FIRST VERSE

||------------------|----------------|----------------|----------------|
||*-------------2---|------------2---|------------2---|------------2---|
||*-0---0---2-4-----|0---0---2-4-----|0---0---2-4-----|0---0---2-4-----|
||------------------|----------------|----------------|----------------|

 i       cant    remember	     what  its from
 i put a 	 trash can             by  the road

|----------------|----------------|----------------|----------------|
|0---0-----------|0---0-----------|0---0-----------|0---0-----------|
|--------2---0---|--------2---0---|--------2---0---|--------2---0---|
|----------------|----------------|----------------|----------------|
 
    well ive been  happy  now for      way too long	    and
   and filled it up      just to   lighten my load	    but

 [1]
|----------------|----------------|----------------|-----------------||
|----------------|----------------|----------------|----------------*||
|2-----2-4-----4-|--------4-----4-|----------------|----------------*||
|----------------|2-----2---------|2-----0-2-2-2---|0-0-0------------||

 Oh!		  We gota lot more to go

 [2]
|----------------|----------------|----------------|-----------------|
|----------------|----------------|----------4-3---|2-2-2------------|
|2-----2-4-----4-|--------4-----4-|----------------|-----------------|
|----------------|2-----2---------|2-----0-2-------|-----------------|

 Oh!		  I got no where to go


 CHORUS

||------------------|----------------|----------------|----------------|
||*-----------------|----------------|----------------|----------------|
||*-2-----------2---|4-----------4---|------------0---|2-------2-------|
||----------2-------|--------2-------|2-------2-------|----------------|

  Some   one's  alone     fell asleep      on  the  phone
  How	  could it   be     that a    fish   in   the  sea	  can


|----------------|----------------|----------------|-----------------||
|----------------|----------------|----------------|----------------*||
|5-------0---5---|4---------------|----------------|----------------*||
|----------------|--------5-------|2-------2---0---|2---2---2--------||

 Waitin	 like a	  dog for a   	   bone				and
 Feel   like its  completely 	alone				the


|----------------|----------------|----------------|----------------|
|----------------|----------------|----------------|----------------|
|7---7---7---7---|7---7---7---7---|9-------9-------|7---9-----------|
|----------------|----------------|------------9---|----------------|

 World   may      nneeeeever  know				the


|----------------|----------------|
|----------------|----------------|
|7---7---7---7---|5---5---5-------|
|----------------|----------------|

 World	 may	  nneeeeever  know!


  INTRO (AGAIN)
||-----------------|----------------|----------------|----------------|
||-------------2---|------------2---|------------2---|------------2---|
||-0-------2-4-----|0---0---2-4-----|0---0---2-4-----|0---0---2-4-----|
||-----------------|----------------|----------------|----------------|


 SECOND VERSE

||------------------|----------------|----------------|----------------|
||*-------------2---|------------2---|------------2---|------------2---|
||*-0---0---2-4-----|0---0---2-4-----|0---0---2-4-----|0---0---2-4-----|
||------------------|----------------|----------------|----------------|

        I know it    hurt   you		'cause you cry
	I found a    needle	          in the   hay

|----------------|----------------|----------------|----------------|
|0---0-----------|0---0-----------|0---0-----------|0---0-----------|
|--------2---0---|--------2---0---|--------2---0---|--------2---0---|
|----------------|----------------|----------------|----------------|

      I know it	  killed  you but  nobody  died		    and
     I found the  sunshine at the  end of the day	    and

 [1]
|----------------|----------------|----------------|-----------------||
|----------------|----------------|----------------|----------------*||
|2-----2-4-----4-|--------4-----4-|----------------|----------------*||
|----------------|2-----2---------|2-----0-2-2-----|0-0-0------------||

 Oh!	    the city aint nothin but show

 [2]
|----------------|----------------|----------------|-----------------|
|----------------|----------------|----------4-3---|2-2-2------------|
|2-----2-4-----4-|--------4-----4-|----------------|-----------------|
|----------------|2-----2---------|2-----0-2-------|-----------------|

 Oh! 		I found a pal in the snow


 CHORUS

||------------------|----------------|----------------|----------------|
||*-----------------|----------------|----------------|----------------|
||*-2-----------2---|4-----------4---|------------0---|2-------2-------|
||----------2-------|--------2-------|2-------2-------|----------------|

  Some   one's  alone     fell asleep      on  the  phone
  How	  could it   be     that a    fish   in   the  sea	  can


|----------------|----------------|----------------|-----------------||
|----------------|----------------|----------------|----------------*||
|5-------0---5---|----4-----------|----------------|----------------*||
|----------------|--------5-------|2-------2---0---|2---2---2--------||

 Waitin	 like a	  dog for a   	   bone				and
 feel   like its  completely 	alone				the


 OUTRO

|----------------|----------------|----------------|----------------|
|----------------|----------------|----------------|----------------|
|7---7---7---7---|7---7---7---7---|9-------9-------|7---9-----------|
|----------------|----------------|------------9---|----------9-----|

 World   may      nneeeeever  know				the

|----------------|----------------|----------------|----------------|
|----------------|----------------|----------------|----------------|
|7---7---7---7---|7---7---2-------|9-------9-------|7---9-----------|
|----------------|----------------|------------9---|----------9-----|

 World   may      nneeeeever  know				the

|----------------|----------------|----------------|----------------|
|----------------|----------------|----------------|----------------|
|----------------|----------------|9-------9-------|7---9-----------|
|0---0---0---0---|0---0---0---0---|------------9---|----------9-----|

 World   may      nneeeeever  know				the

|----------------|----------------|----------------|----------------|
|----------------|----------------|----------------|----------------|
|7---7---7---7---|7---7---7---7---|9---------------|----------------|
|----------------|----------------|----------------|----------------|

 World   may      nneeeeever  know
____________________________________________________________________

watch for the:

 repeats
||--------||
||*------*||
||*------*||
||--------||

otherwise its Verse-Chorus-Verse-Chorus-Outro
the piano in this one is great...
also the fat reverb on the drums

comment/rate/fix/add




|1-+-2-+-3-+-4-+-|1-+-2-+-3-+-4-+-|1-+-2-+-3-+-4-+-|1-+-2-+-3-+-4-+-|
comments
We did not receive enough feedback on this tab! Please rate:
print report bad tab
1 2 3 4 5
1 comment total.
0 reply
Dr. Ed wrote on February 9 2009, 11:37 am

The world may never know... HOW TO PLAY THIS DAMN SONG ON THE GUITAR! Hahaha, oh well, kudos on the bass line.

I want to post or [tab]
guest
You may want to rate the tab now too:
select rating
Please do not post tabs as comments. Select "correction" instead!