Oops, an error
Loading. Please wait.

Bang Bang tab

by Dr. Dre
25 views 6 this week
no commentswrite comment
1 2 3 4 5
3 more votes to show rating
add to favorites
×
Save as Personal and add changes to this tab that will be seen only by you. Learn more ›
×
You can save this tab as Personal to edit and correct it or add notes. All changes will be seen only by you. Learn more »
launch autoscroll
font size
0
reset
how to read this tab
guitar tuner
edit
Autoscroll
slow
fast
+/-
esc
set tempo
stop
[Intro]
               Everywhere I go, all I ever seem to hear is...
E)|----4------------4-6-7-6-4-----0---------------4---4-|
B)|---5------------4-------------5---------------4---4--|
G)|--4------------4-------------6---------------6---6---|
D)|-6------------6-------------6---------------6---6----|
A)|-----------------------------------------------------|
E)|-----------------------------------------------------|

            No matter where I go, all I ever seem to see is...
E)|----4------------4-6-7-6-4-----0---------------4---4-|
B)|---5------------4-------------5---------------4---4--|
G)|--4------------4-------------6---------------6---6---|
D)|-6------------6-------------6---------------6---6----|
A)|-----------------------------------------------------|
E)|-----------------------------------------------------|

              Everywhere I go, all I ever seem to hear is...
E)|----4------------4-6-7-6-4-----0---------------4---4-|
B)|---5------------4-------------5---------------4---4--|
G)|--4------------4-------------6---------------6---6---|
D)|-6------------6-------------6---------------6---6----|
A)|-----------------------------------------------------|
E)|-----------------------------------------------------|

           No matter where I go, all I ever seem to see is...
E)|----4------------4-6-7-6-4-----0---------------4---4---4-|
B)|---5------------4-------------5---------------4---4---5--|
G)|--4------------4-------------6---------------6---6---4---|
D)|-6------------6-------------6---------------6---6---6----|
A)|---------------------------------------------------------|
E)|---------------------------------------------------------|

[Verse]
Dr. Dre
Everyday it's the same thing, L.A. ain't changed.....
(Guitar joins when he says "And he ain't even strong enough to cock one")
E)|----4---4---4------4-6-7-6-4-----0---------------|
B)|---5---4---4------4-------------5----------------|
G)|--4---6---6------4-------------6-----------------|
D)|-6---6---6------6-------------6------------------|
A)|-------------------------------------------------|
E)|-------------------------------------------------|
(The guitar does not stop until the choir starts)

[Chorus]
 Everywhere I go, all I ever seem to hear is...
E)|----4---4---4------4-6-7-6-4-----0---------------4---4-|
B)|---5---4---4------4-------------5---------------4---4--|
G)|--4---6---6------4-------------6---------------6---6---|
D)|-6---6---6------6-------------6---------------6---6----|
A)|-------------------------------------------------------|
E)|-------------------------------------------------------|

            No matter where I go, all I ever seem to see is...
E)|----4------------4-6-7-6-4-----0---------------4---4-|
B)|---5------------4-------------5---------------4---4--|
G)|--4------------4-------------6---------------6---6---|
D)|-6------------6-------------6---------------6---6----|
A)|-----------------------------------------------------|
E)|-----------------------------------------------------|

              Everywhere I go, all I ever seem to hear is...
E)|----4------------4-6-7-6-4-----0---------------4---4-|
B)|---5------------4-------------5---------------4---4--|
G)|--4------------4-------------6---------------6---6---|
D)|-6------------6-------------6---------------6---6----|
A)|-----------------------------------------------------|
E)|-----------------------------------------------------|

           No matter where I go, all I ever seem to see is...
E)|----4------------4-6-7-6-4-----0---------------4---4---4-|
B)|---5------------4-------------5---------------4---4---5--|
G)|--4------------4-------------6---------------6---6---4---|
D)|-6------------6-------------6---------------6---6---6----|
A)|---------------------------------------------------------|
E)|---------------------------------------------------------|

[Verse]
Knoc-Turn'al
Late nights is full of led that whistles as it goes by...
(Guitar joins when he says "Know the sign tells you too it's not best to stop")
E)|----4---4---4------4-6-7-6-4-----0---------------|
B)|---5---4---4------4-------------5----------------|
G)|--4---6---6------4-------------6-----------------|
D)|-6---6---6------6-------------6------------------|
A)|-------------------------------------------------|
E)|-------------------------------------------------|
(Guitar stops when he says "Ammo to leave an armored truck swiss cheese")

[Chorus]
 Everywhere I go, all I ever seem to hear is...
E)|----4---4---4------4-6-7-6-4-----0---------------4---4-|
B)|---5---4---4------4-------------5---------------4---4--|
G)|--4---6---6------4-------------6---------------6---6---|
D)|-6---6---6------6-------------6---------------6---6----|
A)|-------------------------------------------------------|
E)|-------------------------------------------------------|

            No matter where I go, all I ever seem to see is...
E)|----4------------4-6-7-6-4-----0---------------4---4-|
B)|---5------------4-------------5---------------4---4--|
G)|--4------------4-------------6---------------6---6---|
D)|-6------------6-------------6---------------6---6----|
A)|-----------------------------------------------------|
E)|-----------------------------------------------------|

              Everywhere I go, all I ever seem to hear is...
E)|----4------------4-6-7-6-4-----0---------------4---4-|
B)|---5------------4-------------5---------------4---4--|
G)|--4------------4-------------6---------------6---6---|
D)|-6------------6-------------6---------------6---6----|
A)|-----------------------------------------------------|
E)|-----------------------------------------------------|

           No matter where I go, all I ever seem to see is...
E)|----4------------4-6-7-6-4-----0---------------4---4---4-|
B)|---5------------4-------------5---------------4---4---5--|
G)|--4------------4-------------6---------------6---6---4---|
D)|-6------------6-------------6---------------6---6---6----|
A)|---------------------------------------------------------|
E)|---------------------------------------------------------|

[Verse]
Hittman
Now tell me, what the fuck is this man?...
(Guitar joins when he says "I got my, life preserver")
E)|----4---4---4------4-6-7-6-4-----0---------------|
B)|---5---4---4------4-------------5----------------|
G)|--4---6---6------4-------------6-----------------|
D)|-6---6---6------6-------------6------------------|
A)|-------------------------------------------------|
E)|-------------------------------------------------|
(Guitar stops when he says "A soldier of fortune, I'm the wrong nigga to plot on")

[Chorus]
 Everywhere I go, all I ever seem to hear is...
E)|----4---4---4------4-6-7-6-4-----0---------------4---4-|
B)|---5---4---4------4-------------5---------------4---4--|
G)|--4---6---6------4-------------6---------------6---6---|
D)|-6---6---6------6-------------6---------------6---6----|
A)|-------------------------------------------------------|
E)|-------------------------------------------------------|

            No matter where I go, all I ever seem to see is...
E)|----4------------4-6-7-6-4-----0---------------4---4-|
B)|---5------------4-------------5---------------4---4--|
G)|--4------------4-------------6---------------6---6---|
D)|-6------------6-------------6---------------6---6----|
A)|-----------------------------------------------------|
E)|-----------------------------------------------------|

              Everywhere I go, all I ever seem to hear is...
E)|----4------------4-6-7-6-4-----0---------------4---4-|
B)|---5------------4-------------5---------------4---4--|
G)|--4------------4-------------6---------------6---6---|
D)|-6------------6-------------6---------------6---6----|
A)|-----------------------------------------------------|
E)|-----------------------------------------------------|

           No matter where I go, all I ever seem to see is...
E)|----4------------4-6-7-6-4-----0---------------4---4---4-|
B)|---5------------4-------------5---------------4---4---5--|
G)|--4------------4-------------6---------------6---6---4---|
D)|-6------------6-------------6---------------6---6---6----|
A)|---------------------------------------------------------|
E)|---------------------------------------------------------|

[Outro]
Lesser Volume Than other parts...
Everywhere I go, all I ever seem to hear is...

            No matter where I go, all I ever seem to see is...
E)|----4------------4-6-7-6-4-----0---------------4---4-|
B)|---5------------4-------------5---------------4---4--|
G)|--4------------4-------------6---------------6---6---|
D)|-6------------6-------------6---------------6---6----|
A)|-----------------------------------------------------|
E)|-----------------------------------------------------|

              Everywhere I go, all I ever seem to hear is...
E)|----4------------4-6-7-6-4-----0---------------4---4-|
B)|---5------------4-------------5---------------4---4--|
G)|--4------------4-------------6---------------6---6---|
D)|-6------------6-------------6---------------6---6----|
A)|-----------------------------------------------------|
E)|-----------------------------------------------------|

           No matter where I go, all I ever seem to see is...
E)|----4------------4-6-7-6-4-----0---------------4---4---4-|
B)|---5------------4-------------5---------------4---4---5--|
G)|--4------------4-------------6---------------6---6---4---|
D)|-6------------6-------------6---------------6---6---6----|
A)|---------------------------------------------------------|
E)|---------------------------------------------------------|

            
            
Suggest correction
Creating personal tab
Creating personal tab
You can edit any tab online and save it as your Personal.

You can edit, replace or remove any tab part or add personal notes – all changes will be seen only by you.

Personal tabs can be accessed anytime from any device, even offline.
Learn more »
Give kudos to tab author, rate the tab!
1 2 3 4 5
comments
print report bad tab
guest
You may want to rate the tab now too:
select rating
Wanna post a correction for this tab? Suggest correction