Oops, an error
Loading. Please wait.

Forgot About Dre Bass Tab

version 1
version 1

Whole song

Interactive

15,643 views 39 this week
4 commentsread comments
1 2 3 4 5
x 9
add to favorites
launch autoscroll
font size
0
reset
guitar tuner
Autoscroll
slow
fast
+/-
esc
set tempo
stop
Help us to improve Ultimate-Guitar.com Take our survey!
×
Artist: Dr Dre
Song Title: Forgot About Dre
Album: Chronic 2001

The tab originally posted by spud12@home.com didn't sound right to me so
here is the version I made by using spud's outline.
G|---------------------------------------------------|
D|-*------5-7---8---7---------------*----------------|
A|-*--------------------6-----5-----*----------------|
E|---3----------------------------4------------------|

Just repest this section over and over :)
I think it sounds better, but thanks spud for the tab to work with.

 CORRECTION:
G|-----------3---2-3-2-------------------------------|
D|-*-------5-----------------------------------------|
A|-*-----5---------------6-----5---------------------|
E|---3----------------------------6------------------|

That's the correct way to play it, just listen to the song and repeat it if you still don't believe me.
Suggest correction
comments
print report bad tab
4 comments total. Showing first comments.
+1 reply
Alix_D 30 Jun 19, 2007 06:03 PM

The first one is better, but that last note should be the Bb not the F#, as corrected on the second one, but otherwise the first one is perfect.

0 reply
Dystiller 10 Nov 24, 2008 04:44 PM

i'm sorry... where do you see an F#?

0 reply
whitemonkey 10 Jan 25, 2009 12:21 PM

d---5-7-8-7--------
a-----------6-5----
e3-------------4--- thats the notes figure out the timings

guest
You may want to rate the tab now too:
select rating
Wanna post a correction for this tab? Suggest correction