Oops, an error
Loading. Please wait.

Forgot About Dre Tab

version 2
version 2

Interactive

3,736 views 1 this week
no commentswrite comment
1 2 3 4 5
please rate
add to favorites
launch autoscroll
font size
0
reset
how to read this tab
guitar tuner
Autoscroll
slow
fast
+/-
esc
set tempo
stop
Help us to improve Ultimate-Guitar.com Take our survey!
×
Difficulty
novice
lead

-------------5--6------------------------------------------------------------|
----------8------------------------------------------------------------------|
-------7---------------------------------------------------------------------|
-5--8------------------------------------------------------------------------|
-----------------------------------------------------------------------------|
-----------------------------------------------------------------------------|

rythem

-3--3--3--3--3--3--3--3333--3-3-3-3------------------------------------------|
-3--3--3--3--3--3--3--3333--2-2-2-2------------------------------------------|
-----------------------------------------------------------------------------|
-----------------------------------------------------------------------------|
-----------------------------------------------------------------------------|
-----------------------------------------------------------------------------|

bass

-----------------------------------------------------------------------------|
-----------------------------------------------------------------------------|
-----------------------------------------------------------------------------|
----5---7---8----------------------------------------------------------------|
-----------------6---5-------------------------------------------------------|
-3-----------------------5---------------------------------------------------|
Suggest correction
Give kudos to tab author, rate the tab!
1 2 3 4 5
comments
print report bad tab
guest
You may want to rate the tab now too:
select rating
Please do not post tabs as comments. Select "correction" instead!