Oops, an error
Loading. Please wait.

I Need A Doctor Tab

version 2
version 2

Whole song

4,669 views 3 this week
no commentswrite comment
1 2 3 4 5
please rate
add to favorites
launch autoscroll
font size
0
reset
how to read this tab
guitar tuner
Autoscroll
slow
fast
+/-
esc
set tempo
stop
Help us to improve Ultimate-Guitar.com Take our survey!
×
Author
Difficulty
novice
Dr dre feat eminem, skylar grey,
i need a doctor

Tab and chords

submitted by micks343

all the other listed tabs did not sound right so i transcribed it
please rate

tab
e---10-----10----10---10----------11----11----11----11-----------------|
b-------9-----9-----9----9-----------11----11----11-----10-------------|
g----------------------------------------------------------------------|
d----------------------------------------------------------------------|
a---10-----------------------------------------------------------------|
e---------------------------------11-----------------------------------|

     g                            eb

e---8------8----8----8-------8----8----8----8---------------------------|
b-------11---11---11---11-------8---8----8-----8------------------------|
g-----------------------------------------------------------------------|
d-----------------------------------------------------------------------|
a---8------------------------8------------------------------------------|
e-----------------------------------------------------------------------|

     f                       f

e---6-----6-----6-----6------6-----6-----6-----6-------------------------|
b------8-----8-----8-----8------8-----8-----8-----8----------------------|
g------------------------------------------------------------------------|
d---5------------------------5-------------------------------------------|
a------------------------------------------------------------------------|
e------------------------------------------------------------------------|

   eb

e---5-----5-----5-----5------5-----5-----5-----5------------------------|
b------8-----8-----8-----8------8-----8-----8-----8---------------------|
g-----------------------------------------------------------------------|
d-----------------------------------------------------------------------|
a---5------------------------5------------------------------------------|
e-----------------------------------------------------------------------|

  D

i place a capo on 5 to make the final part a little easier.


the chords go as follows , no capo
 g(octave up from standard) x 8
 eb x8
 f#(octave up from standard) x 16
 eb x16
 d x16

with a capo on 3
em7 x8
c add 9 x8
dsus 4 x16

cadd9 x16
b maj x16
Suggest correction
Give kudos to tab author, rate the tab!
1 2 3 4 5
comments
print report bad tab
guest
You may want to rate the tab now too:
select rating
Please do not post tabs as comments. Select "correction" instead!