Oops, an error
Loading. Please wait.

Next Episode bass

by Dr. Dre
925 views 9 this week
no commentswrite comment
1 2 3 4 5
2 more votes to show rating
add to favorites
×
Save as Personal and add changes to this tab that will be seen only by you. Learn more ›
×
You can save this tab as Personal to edit and correct it or add notes. All changes will be seen only by you. Learn more »
launch autoscroll
font size
0
reset
guitar tuner
edit
Autoscroll
slow
fast
+/-
esc
set tempo
stop
About this tab version
Add outro part, and Intro. Was this info helpful? Yes No
[Intro]
G|--------------------------------------|
D|--------------------------------------|
A|-4-4-2h4-4-4-2h4-4-4-2h4----------4--4|
E|--------------------------2-2-2-2(2)-2|

 [Verse and main line]
G|---------------------------------|
D|---------------------------------|
A|-4---4-2-4--2-0-2--2-0---0----(4)|
E|-----------------------2---2-----|Reapeat trough whole song

 Variation of line
G|-6---6-4-6--4-2-4--4-2---2--|
D|-----------------------4---4|
A|----------------------------|
E|----------------------------|

 [Outro]
G|----6--------------------------------------------2--4-4-4-4-6-6-6-6----|
D|------6----------------------------------------2--------------------6--|
A|-4------4-2-2-2-2-4-4-4--0-0-0-0-2-0-2-0---0--------------------------4|
E|-----------------------------------------2---2-------------------------| repeat very fast



************************************

| (n)  Ghost note
| h    Hammer-on

************************************

            
            
Suggest correction
Creating personal tab
Creating personal tab
You can edit any tab online and save it as your Personal.

You can edit, replace or remove any tab part or add personal notes – all changes will be seen only by you.

Personal tabs can be accessed anytime from any device, even offline.
Learn more »
Give kudos to tab author, rate the tab!
1 2 3 4 5
comments
print report bad tab
guest
You may want to rate the tab now too:
select rating
Wanna post a correction for this tab? Suggest correction