Oops, an error
Loading. Please wait.

Next Episode Bass Tab

412 views 15 this week
no commentswrite comment
1 2 3 4 5
3 more votes to show rating
add to favorites
launch autoscroll
font size
0
reset
guitar tuner
Autoscroll
slow
fast
+/-
esc
set tempo
stop
Help us to improve Ultimate-Guitar.com Take our survey!
×
Author
Difficulty
About this tab version
Add outro part, and Intro. Was this info helpful? Yes No
[Intro]
G|--------------------------------------|
D|--------------------------------------|
A|-5-5-3h5-5-5-3h5-5-5-3h5----------5--5|
E|--------------------------3-3-3-3(3)-3|

 [Verse and main line]
G|---------------------------------|
D|---------------------------------|
A|-5---5-3-5--3-1-3--3-1---1----(5)|
E|-----------------------3---3-----|Reapeat trough whole song

 Variation of line
G|-7---7-5-7--5-3-5--5-3-0-3-0|
D|----------------------------|
A|----------------------------|
E|----------------------------|

 [Outro]
G|----7--------------------------------------------3--5-5-5-5-7-7-7-7----|
D|------7----------------------------------------3--------------------7--|
A|-5------5-3-3-3-3-5-5-5--1-1-1-1-3-1-3-1---1--------------------------5|
E|-----------------------------------------3---3-------------------------| repeat very fast

In the [Outro], improve using D, C, Bb and G.

************************************

| (n)  Ghost note
| h    Hammer-on

************************************
Suggest correction
Give kudos to tab author, rate the tab!
1 2 3 4 5
comments
print report bad tab
guest
You may want to rate the tab now too:
select rating
Wanna post a correction for this tab? Suggest correction