Oops, an error
Loading. Please wait.

Nothin But A G Thang Bass Tab

version 1
version 1

Whole song

Interactive

4,710 views 9 this week
1 commentread comment
1 2 3 4 5
1 last vote to show rating
add to favorites
launch autoscroll
font size
0
reset
guitar tuner
Autoscroll
slow
fast
+/-
esc
set tempo
stop
Help us to improve Ultimate-Guitar.com Take our survey!
×
Song: Nuttin But a G Thang
Band: Dr Dre
Album: The Chronic 
Tabbed by: Rob MacGuffie (SubDubLBC@aol.com)



 Matt Clark had it close, but he was half a step off.

 |--------------------------------------|
 |--------------------------------------|
 |-----------7-7-8-9---7-7-8-9----------|
 |-7-5-6-7----------------------7-5-6-7-|
Suggest correction
Give kudos to tab author, rate the tab!
1 2 3 4 5
comments
print report bad tab
1 comment total.
0 reply
navonski 31 Aug 20, 2014 02:10 PM

very close, but off by one note. here it is: play the 2's with index, and 5's with pinky.

|--------------------------------------|
|--------------------------------------|
|-2-----2---7-7-8-9---7-7-8-9--2-----2-|
|---2-5--------------------------2-5---|

guest
You may want to rate the tab now too:
select rating
Wanna post a correction for this tab? Suggest correction