Oops, an error
Loading. Please wait.

Nuthin But A G Thang Bass Tab

version 1
version 1

Whole song

Interactive

12,440 views 75 this week
2 commentsread comments
1 2 3 4 5
x 8
add to favorites
launch autoscroll
font size
0
reset
guitar tuner
Autoscroll
slow
fast
+/-
esc
set tempo
stop
Help us to improve Ultimate-Guitar.com Take our survey!
×
Difficulty
novice
4 Measures rest at the begining, and then this is played the whole way through.

|---------------------------|-------------------------|
|*-------------0-2-3-4------|-0-2-3-4----------------*|
|*-2---0-2------------------|-------------2---0--2---*|
|----4----------------------|---------------4---------|

   1 e & a (2) 3 e & a (4)    1 e & a (2) 3 e & a (4)
Suggest correction
comments
print report bad tab
2 comments total.
+1 reply
mulletboy14 20 Dec 30, 2010 11:55 AM

It's like that and like this and like that and uh, IT'S LIKE THIS.

0 reply
chauartiartic 27 Apr 09, 2016 08:43 AM

you cant do like this too :

|---------------------------|-------------------------|
|*-------------0-2-3-4------|-0-2-3-4----------------*|
|*-2---0-2-2----------------|-------------2---0--2-2-*|
|---------------------------|-------------------------|

guest
You may want to rate the tab now too:
select rating
Wanna post a correction for this tab? Suggest correction