Oops, an error
Loading. Please wait.

Still Dre Tab

version 1
version 1

Whole song

Interactive

97,503 views 864 this week
9 commentsread comments
1 2 3 4 5
x 37
add to favorites
launch autoscroll
font size
0
reset
how to read this tab
guitar tuner
×
Best way to learn
"Still Dre"
Autoscroll
slow
fast
+/-
esc
set tempo
stop
Author/Artist: Dr. Dre
Title: still D.R.E
Album: Chronic 2001
Transcribed by: Justin Adair`
Email: Crptic102@aol.com


e|--17-------17-------17-------17-------17-------17-------17-------17--------|
B|--17-------17-------17-------17-------17-------17-------17-------17--------|
G|--17-------17-------17-------17-------17-------17-------17-------17--------|
D|---------------------------------------------------------------------------|
A|---------------------------------------------------------------------------|
E|---------------------------------------------------------------------------|
 sweep these bi-e-o-c- hes                                                    

e|--17-------17-------17-------15-------15-------15-------15------15---------|
B|--17-------17-------17-------17-------17-------17-------17------17---------|
G|--16-------16-------16-------16-------16-------16-------16------16---------|
D|---------------------------------------------------------------------------|
A|---------------------------------------------------------------------------|
E|---------------------------------------------------------------------------|
                 
                       want bass? mail my place.                                   
Suggest correction
comments
print report bad tab
9 comments total. Showing first comments.
0 reply
ALEXANDERP 10 Apr 13, 2002 08:00 PM

nice work its perfect but i think the song is played an octave lower

0 reply
wes_borland 10 Feb 25, 2006 09:28 AM

no this tab is wrong you wang i played this you need to use a mandolin if you want the right tabs email me

-1 reply
Dominic_91 31 Jul 01, 2006 09:15 AM

Its Wrong..

guest
You may want to rate the tab now too:
select rating
Wanna post a correction for this tab? Suggest correction