Oops, an error
Loading. Please wait.

Xxplosive Bass

version 2
version 2

Whole song

Interactive

by Dr. Dre
2,710 views 3 this week
1 commentread comment
1 2 3 4 5
2 more votes to show rating
add to favorites
launch autoscroll
font size
0
reset
guitar tuner
×
Best way to learn
"Xxplosive"
Autoscroll
slow
fast
+/-
esc
set tempo
stop
Difficulty
intermediate
The bass repeats throughout the whole song this same way.  Enjoy.

G---10-------------------------10------------------------|
D------10---------8---------------10---------8-----------|
A---------11-8------10---------------11-8------10--------|
E----------------------11-8-----------------------11-8---|
Suggest correction
Give kudos to tab author, rate the tab!
1 2 3 4 5
comments
print report bad tab
1 comment total.
0 reply
EvilDude1758 10 Feb 03, 2016 02:25 PM

Just a tiny correction.
G---10-------------------------10------------------------|
D------10---------10--------------10---------10----------|
A---------11-8------10---------------11-8------10--------|
E----------------------11-8-----------------------11-8---|

guest
You may want to rate the tab now too:
select rating
Wanna post a correction for this tab? Suggest correction