Oops, an error
Loading. Please wait.

Roxette Tab

version 2
version 2

Whole song

Interactive

2,487 views 9 this week
no commentswrite comment
1 2 3 4 5
please rate
add to favorites
launch autoscroll
font size
0
reset
how to read this tab
guitar tuner
Autoscroll
slow
fast
+/-
esc
set tempo
stop
Help us to improve Ultimate-Guitar.com Take our survey!
×
Author
Difficulty
intermediate
ROXETTE
As recorded by Dr. Feelgood
(From the 1975 Album DOWN BY THE JETTY)

Words and Music by Wilko Johnson

Transcribed by Slowhand

Gtr I (E A D G B E) - 'Wilko Johnson - Guitar'

 Intro
  Q=124
  N.C.
 4/4
  Gtr I
  Wx4
|--------|
|--------|
|--------|
|--------|
|--------|
|--------|


  G
  E E E S S E E E S S   E E E S S E E E S S
|-------3-x-------3-x-|-------3-x-------3-x-|
|-------3-x-------3-x-|-------3-x-------3-x-|
|-------4-x-------4-x-|-------4-x-------4-x-|
|---3-5-5-x---3-5-5-x-|---3-5-5-x---3-5-5-x-|
|-5---------5---------|-5---------5---------|
|---------------------|---------------------|


  E E E S S E E E S S   E E E S S E E E S S
|-------3-x-------3-x-|-------3-x-------3-x--||
|-------3-x-------3-x-|-------3-x-------3-x--||
|-------4-x-------4-x-|-------4-x-------4-x--||
|---3-5-5-x---3-5-5-x-|---3-5-5-x---3-5-5-x--||
|-5---------5---------|-5---------5----------||
|---------------------|----------------------||


   1st - 3rd Verses
    $
    G
    E E E S S E E E S S   E E E S S E E E S S
||--------3-x-------3-x-|-------3-x-------3-x-|
||o-------3-x-------3-x-|-------3-x-------3-x-|
||--------4-x-------4-x-|-------4-x-------4-x-|
||----3-5-5-x---3-5-5-x-|---3-5-5-x---3-5-5-x-|
||o-5---------5---------|-5---------5---------|
||----------------------|---------------------|


  E E E S S E E E S S   E E E S S E E E S S
|-------3-x-------3-x-|-------3-x-------3-x-|
|-------3-x-------3-x-|-------3-x-------3-x-|
|-------4-x-------4-x-|-------4-x-------4-x-|
|---3-5-5-x---3-5-5-x-|---3-5-5-x---3-5-5-x-|
|-5---------5---------|-5---------5---------|
|---------------------|---------------------|


  C
   E E  E  S S  E E  E  S S    E E  E  S S  E E  E  S S
|----------8-x----------8-x-|----------8-x----------8-x-|
|----------8-x----------8-x-|----------8-x----------8-x-|
|----------9-x----------9-x-|----------9-x----------9-x-|
|----8-10-10-x----8-10-10-x-|----8-10-10-x----8-10-10-x-|
|-10-----------10-----------|-10-----------10-----------|
|---------------------------|---------------------------|


  G
  E E E S S E E E S S   E E E S S E E E S S
|-------3-x-------3-x-|-------3-x-------3-x--|
|-------3-x-------3-x-|-------3-x-------3-x--|
|-------4-x-------4-x-|-------4-x-------4-x--|
|---3-5-5-x---3-5-5-x-|---3-5-5-x---3-5-5-x--|
|-5---------5---------|-5---------5----------|
|---------------------|----------------------|


  D                                 C
   E  S S  E  S S  E  S S  E  S S    E  S S  E  S S  E  S S  E  S S
|----10-x----10-x----10-x----10-x-|-----8-x-----8-x-----8-x-----8-x-|
|----10-x----10-x----10-x----10-x-|-----8-x-----8-x-----8-x-----8-x-|
|----11-x----11-x----11-x----11-x-|-----9-x-----9-x-----9-x-----9-x-|
|----12-x----12-x----12-x----12-x-|----10-x----10-x----10-x----10-x-|
|-12------12------12------12------|-10------10------10------10------|
|---------------------------------|---------------------------------|


                                                 To Coda
  D                                 G
   E  S S  E  S S  E  S S  E  S S   E E E S S E E E S S
|----10-x----10-x----10-x----10-x-|-------3-x-------3-x--|
|----10-x----10-x----10-x----10-x-|-------3-x-------3-x--|
|----11-x----11-x----11-x----11-x-|-------4-x-------4-x--|
|----12-x----12-x----12-x----12-x-|---3-5-5-x---3-5-5-x--|
|-12------12------12------12------|-5---------5----------|
|---------------------------------|----------------------|


                                             1.
  E E E S S E E E S S   E E E S S E E E S S   E E E S S E E E S S
|-------3-x-------3-x-|-------3-x-------3-x-|-------3-x-------3-x--||
|-------3-x-------3-x-|-------3-x-------3-x-|-------3-x-------3-x-o||
|-------4-x-------4-x-|-------4-x-------4-x-|-------4-x-------4-x--||
|---3-5-5-x---3-5-5-x-|---3-5-5-x---3-5-5-x-|---3-5-5-x---3-5-5-x--||
|-5---------5---------|-5---------5---------|-5---------5---------o||
|---------------------|---------------------|----------------------||


                        Harmonica Solo
  2.
                         G
  E E E S S E E E S S    E E E S S E E E S S
|-------3-x-------3-x-||-------3-x-------3-x-|
|-------3-x-------3-x-||-------3-x-------3-x-|
|-------4-x-------4-x-||-------4-x-------4-x-|
|---3-5-5-x---3-5-5-x-||---3-5-5-x---3-5-5-x-|
|-5---------5---------||-5---------5---------|
|---------------------||---------------------|


  E E E S S E E E S S   E E E S S E E E S S   E E E S S E E E S S
|-------3-x-------3-x-|-------3-x-------3-x-|-------3-x-------3-x-|
|-------3-x-------3-x-|-------3-x-------3-x-|-------3-x-------3-x-|
|-------4-x-------4-x-|-------4-x-------4-x-|-------4-x-------4-x-|
|---3-5-5-x---3-5-5-x-|---3-5-5-x---3-5-5-x-|---3-5-5-x---3-5-5-x-|
|-5---------5---------|-5---------5---------|-5---------5---------|
|---------------------|---------------------|---------------------|


  C
   E E  E  S S  E E  E  S S    E E  E  S S  E E  E  S S
|----------8-x----------8-x-|----------8-x----------8-x-|
|----------8-x----------8-x-|----------8-x----------8-x-|
|----------9-x----------9-x-|----------9-x----------9-x-|
|----8-10-10-x----8-10-10-x-|----8-10-10-x----8-10-10-x-|
|-10-----------10-----------|-10-----------10-----------|
|---------------------------|---------------------------|


  G
  E E E S S E E E S S   E E E S S E E E S S
|-------3-x-------3-x-|-------3-x-------3-x--|
|-------3-x-------3-x-|-------3-x-------3-x--|
|-------4-x-------4-x-|-------4-x-------4-x--|
|---3-5-5-x---3-5-5-x-|---3-5-5-x---3-5-5-x--|
|-5---------5---------|-5---------5----------|
|---------------------|----------------------|


  D                                 C
   E  S S  E  S S  E  S S  E  S S    E  S S  E  S S  E  S S  E  S S
|----10-x----10-x----10-x----10-x-|-----8-x-----8-x-----8-x-----8-x-|
|----10-x----10-x----10-x----10-x-|-----8-x-----8-x-----8-x-----8-x-|
|----11-x----11-x----11-x----11-x-|-----9-x-----9-x-----9-x-----9-x-|
|----12-x----12-x----12-x----12-x-|----10-x----10-x----10-x----10-x-|
|-12------12------12------12------|-10------10------10------10------|
|---------------------------------|---------------------------------|


  D                                 G
   E  S S  E  S S  E  S S  E  S S   E E E S S E E E S S
|----10-x----10-x----10-x----10-x-|-------3-x-------3-x--|
|----10-x----10-x----10-x----10-x-|-------3-x-------3-x--|
|----11-x----11-x----11-x----11-x-|-------4-x-------4-x--|
|----12-x----12-x----12-x----12-x-|---3-5-5-x---3-5-5-x--|
|-12------12------12------12------|-5---------5----------|
|---------------------------------|----------------------|


                                                      D.S. al Coda
  E E E S S E E E S S   E E E S S E E E S S   E E E S S E E E S S
|-------3-x-------3-x-|-------3-x-------3-x-|-------3-x-------3-x--||
|-------3-x-------3-x-|-------3-x-------3-x-|-------3-x-------3-x--||
|-------4-x-------4-x-|-------4-x-------4-x-|-------4-x-------4-x--||
|---3-5-5-x---3-5-5-x-|---3-5-5-x---3-5-5-x-|---3-5-5-x---3-5-5-x--||
|-5---------5---------|-5---------5---------|-5---------5----------||
|---------------------|---------------------|----------------------||


  &
  N.C.
  Wx4
|--------|
|--------|
|--------|
|--------|
|--------|
|--------|


  G
  S S S S S S S S S S S S S S S S   S S S S S S S S S S S S S S S S
|---x---x---x-3-x---x---x---x-3-x-|---x---x---x-3-x---x---x---x-3-x-|
|---x---x---x-3-x---x---x---x-3-x-|---x---x---x-3-x---x---x---x-3-x-|
|---x---x---x-4-x---x---x---x-4-x-|---x---x---x-4-x---x---x---x-4-x-|
|-----3---5---5-x-----3---5---5-x-|-----3---5---5-x-----3---5---5-x-|
|-5---------------5---------------|-5---------------5---------------|
|---------------------------------|---------------------------------|


  S S S S S S S S S S S S S S S S
|---x---x---x-3-x---x---x---x-3-x-||
|---x---x---x-3-x---x---x---x-3-x-||
|---x---x---x-4-x---x---x---x-4-x-||
|-----3---5---5-x-----3---5---5-x-||
|-5---------------5---------------||
|---------------------------------||


  S S S S S S S S S S S S S S S S
|---x---x---x-3-x---x---x---x-3-x-|
|---x---x---x-3-x---x---x---x-3-x-|
|---x---x---x-4-x---x---x---x-4-x-|
|-----3---5---5-x-----3---5---5-x-|
|-5---------------5---------------|
|---------------------------------|


   Outo Harmonica Solo
    G
    S S S S S S S S S S S S S S S S   S S S S S S S S S S S S S S S S
||----x---x---x-3-x---x---x---x-3-x-|---x---x---x-3-x---x---x---x-3-x-|
||o---x---x---x-3-x---x---x---x-3-x-|---x---x---x-3-x---x---x---x-3-x-|
||----x---x---x-4-x---x---x---x-4-x-|---x---x---x-4-x---x---x---x-4-x-|
||------3---5---5-x-----3---5---5-x-|-----3---5---5-x-----3---5---5-x-|
||o-5---------------5---------------|-5---------------5---------------|
||----------------------------------|---------------------------------|


  S S S S S S S S S S S S S S S S   S S S S S S S S S S S S S S S S  5x
|---x---x---x-3-x---x---x---x-3-x-|---x---x---x-3-x---x---x---x-3-x--||
|---x---x---x-3-x---x---x---x-3-x-|---x---x---x-3-x---x---x---x-3-x-o||
|---x---x---x-4-x---x---x---x-4-x-|---x---x---x-4-x---x---x---x-4-x--||
|-----3---5---5-x-----3---5---5-x-|-----3---5---5-x-----3---5---5-x--||
|-5---------------5---------------|-5---------------5---------------o||
|---------------------------------|----------------------------------||


Duration Legend
---------------
W - whole; H - half; Q - quarter; E - 8th; S - 16th; T - 32nd; X - 64th; a - acciaccatura
+ - note tied to previous; . - note dotted; .. - note double dotted
Uncapitalized letters represent notes that are staccato (1/2 duration)
Irregular groupings are notated above the duration line
Duration letters will always appear directly above the note/fret number it represents the
duration for.  Duration letters with no fret number below them represent rests.  Multi-
bar rests are notated in the form Wxn, where n is the number of bars to rest for.  Low
melody durations appear below the staff

Tablature Legend
----------------
 h   - hammer-on
 p   - pull-off
 b   - bend
 pb  - pre-bend
 r   - bend release (if no number after the r, then release immediately)
 /\  - slide into or out of (from/to "nowhere")
 s   - legato slide
 S   - shift slide
  - natural harmonic
[n]  - artificial harmonic
n(n) - tapped harmonic
 ~   - vibrato
 tr  - trill
 T   - tap
 TP  - trem. picking
 PM  - palm muting
\n/  - tremolo bar dip; n = amount to dip
 \n  - tremolo bar down
 n/  - tremolo bar up
/n\  - tremolo bar inverted dip
 =   - hold bend; also acts as connecting device for hammers/pulls
 <>  - volume swell (louder/softer)
 x   - on rhythm slash represents muted slash
 o   - on rhythm slash represents single note slash

Misc Legend
-----------
 |  - bar
||  - double bar
||o - repeat start
o|| - repeat end
*|  - double bar (ending)
 :  - bar (freetime)
 $  - Segno
 &  - Coda
Tempo markers -  = BPM(8/16=s8/s16), where s8 = swing 8ths, s16 = swing 16ths
Suggest correction
Give kudos to tab author, rate the tab!
1 2 3 4 5
comments
print report bad tab
guest
You may want to rate the tab now too:
select rating
Wanna post a correction for this tab? Suggest correction