Oops, an error
Loading. Please wait.

Get My Rocks Off Bass Tab

2,409 views 1 this week
1 commentread comment
1 2 3 4 5
3 more votes to show rating
add to favorites
launch autoscroll
font size
0
reset
guitar tuner
Autoscroll
slow
fast
+/-
esc
set tempo
stop
Help us to improve Ultimate-Guitar.com Take our survey!
×
Dr. Hook – Get My Rocks Off

This is the intro riff that starts out the song and repeats itself throughout.

--------------------------|
----------------------6---|
-4-x-4—7-4----4-x-4-7---2-|
-----------7--------------|

--------------------------|
----------------------6---|
-4-x-4—7-4----4-x-4-7---2-|
-----------7--------------|


or you could try :
----------------------------|
------------------------4---|
2-x-2--5--2----2-x-2--5---0-|
------------5---------------|

----------------------------|
------------------------4---|
2-x-2--5--2----2-x-2--5---0-|
------------5---------------|
Suggest correction
Give kudos to tab author, rate the tab!
1 2 3 4 5
comments
print report bad tab
1 comment total.
0 reply
WJRF 388 Dec 08, 2013 07:58 PM

----------------------|
----------------------|
----------------------|
-x-5-5-x-8-x-5-3--x-5-|

----------------------|
----------------------|
----------------------|
5-x-8-x-12-3----------|
repeat through the rest of the song

-----------------------------|
-------------------------2---|
-x-0-x-0-3-0---x-0-x-0-3-----|
------------3--------------3-|
repeat through the rest of the song

guest
You may want to rate the tab now too:
select rating
Wanna post a correction for this tab? Suggest correction