Oops, an error
Loading. Please wait.

Back And Forth Tab

605 views 1 this week
no commentswrite comment
1 2 3 4 5
2 more votes to show rating
add to favorites
launch autoscroll
font size
0
reset
how to read this tab
guitar tuner
Autoscroll
slow
fast
+/-
esc
set tempo
stop
Help us to improve Ultimate-Guitar.com Take our survey!
×
Author
Difficulty
novice
----------------------------------------------------------------------------
                             SONG NAME - Band Name
----------------------------------------------------------------------------
Tabbed by:Robot Monster

Tuning:Standard

A decent amount of this song is actually trumpet and doesn't really translate well to 
guitar, but I did my best to find a good way to play it on guitar.

Riff 1(Trumpet, Intro + Chorus)
e|-------------------------------------------------------------------------|
B|-------------------------------------------------------------------------|
G|-------------------------------0-----------------------------------------|
D|---------------------------------0---------------------------------------|
A|-----1--1------1--1------1--1------1~------------------------------------|
E|-3--3------3--3------3--3------------------------------------------------|

Verse Riff

e|---3------5-----6-----5----6------------|
B|---3------5-----6-----5----6------------|
G|---4------6-----7-----6----7------------|
D|---5------7-----8-----7----8---2-2--4---|
A|---5------7-----8-----7----8---2-2--4---|
E|---3------5-----6-----5----6---0-0--2---|

Verse 2-Just two quick hits of G with the singing each time, with some high 
notes(actually theremin?) played after
    SEE  ME     Look into my eyes, you're getting sleepy...(etc)
e|----3--3------------------------------------------------------------|
B|----3--3-----------20~~~---19~~~~-----------------------------------|
G|----4--4------------------------------------------------------------|
D|----5--5------------------------------------------------------------|X4
A|----5--5------------------------------------------------------------|
E|----3--3------------------------------------------------------------|


I'm not going to put an exact number of repeats for each riff out of fear of getting 
them wrong but the basic order is:
Main riff(Alone-Intro)
Verse+Main together
Verse
Main Riff(Chorus)
Verse 2
Main Riff(Chorus)
Main Riff(Alone-Outro)
Suggest correction
Give kudos to tab author, rate the tab!
1 2 3 4 5
comments
print report bad tab
guest
You may want to rate the tab now too:
select rating
Wanna post a correction for this tab? Suggest correction