Oops, an error
Loading. Please wait.

Hijo De Puta tab

by Dracma
49 views 1 this week
no commentswrite comment
1 2 3 4 5
3 more votes to show rating
add to favorites
×
Save as Personal and add changes to this tab that will be seen only by you. Learn more ›
×
You can save this tab as Personal to edit and correct it or add notes. All changes will be seen only by you. Learn more »
launch autoscroll
font size
0
reset
how to read this tab
guitar tuner
edit
Autoscroll
slow
fast
+/-
esc
set tempo
stop
Cancion: Hijo de Puta
Artista: Dracma
Album: Dracma (1999)
Contribuidor: Sprunkcovers "The Mono Azul"

Esta es mi version de la cancion "Hijo de Puta" de Dracma, lejos mi grupo chileno favorito, un pionero del 
"Aggro Metal" chileno, exelente disco el homonimo, la cancion puede estar mal en algunas partes, pero 
suena muy bien de todas maneras, no tengo el solo, toda la tab es una mezcla de lo que saque por oido mas
las presentaciones en vivo, gracias a esto pude sacar la gran parte de la cancion, cancion es en D Standard
o en Re, un tono abajo, afinacion tipica de Dracma


[Intro]

D|-------------------------------|
A|-------------------------------|
F|----9-9---9-9---9-9--9-9--9--9-|
C|----9-9---9-9---9-9--9-9--9--9-| x4
G|----7-7---7-7---7-7--7-7--7--7-|
D|--0-----0----0-----0----0------|
    _    _   _   _  _ 
   PM   PM  PM  PM PM    
*La introduccion continua con este riff, que a la vez es el principal.

D|-------------------------------------------------------------------------------------------------------|
A|-------------------------------------------------------------------------------------------------------|
F|----9-9---9-9---9-9---9-9---10-10--10-10--10-10--10-10--8-8---8-8---8-8---8-8---9-9---9-9---9-9---9-9--|
C|----9-9---9-9---9-9---9-9---10-10--10-10--10-10--10-10--8-8---8-8---8-8---8-8---9-9---9-9---9-9---9-9--| x2
G|----7-7---7-7---7-7---7-7---8--8---8--8---8--8---8--8---6-6---6-6---6-6---6-6---7-7---7-7---7-7---7-7--|
D|--0-----0-----0-----0-----0------0------0------0------0-----0-----0-----0-----0-----0-----0-----0------|
    _     _     _     _     _      _      _      _      _     _     _     _     _     _     _     _     
   PM    PM    PM    PM    PM     PM     PM     PM     PM    PM    PM    PM    PM    PM    PM    PM  


[Verse 1]

D|---------|
A|---------|
F|---------|
C|--2------|
G|--2------|
D|--0------|

*Deja esta nota sonar por un buen rato hasta que entra denuevo la guitarra.

"Mientes, Noches..."

D|----------------------------------------------|
A|----------------------------------------------|
F|----------------------------------------------| 
C|-x-x--2-2-----2-2-----2-2-----2-2-------------|
G|-x-x--2-2-----2-2-----2-2-----2-2--[5]-[6]----|
D|-x-x--0-0-----0-0-----0-0-----0-0----------5b-|

D|-------------------------------------------|
A|-------------------------------------------|
F|-------------------------------------------| 
C|---2-2-----2-2-----2-2-----2-2-------------| x3
G|---2-2-----2-2-----2-2-----2-2--[5]-[6]----|
D|---0-0-----0-0-----0-0-----0-0----------5b-|



D|-------------------------------------------------------------------------------------------------------|
A|-------------------------------------------------------------------------------------------------------|
F|----9-9---9-9---9-9---9-9---10-10--10-10--10-10--10-10--8-8---8-8---8-8---8-8---9-9---9-9---9-9---9-9--|
C|----9-9---9-9---9-9---9-9---10-10--10-10--10-10--10-10--8-8---8-8---8-8---8-8---9-9---9-9---9-9---9-9--| 
G|----7-7---7-7---7-7---7-7---8--8---8--8---8--8---8--8---6-6---6-6---6-6---6-6---7-7---7-7---7-7---7-7--|
D|--0-----0-----0-----0-----0------0------0------0------0-----0-----0-----0-----0-----0-----0-----0------|
    _     _     _     _     _      _      _      _      _     _     _     _     _     _     _     _     
   PM    PM    PM    PM    PM     PM     PM     PM     PM    PM    PM    PM    PM    PM    PM    PM  


"Somos una tribu..."
D|------------------------------------------------|
A|------------------------------------------------|
F|------------------------------------------------| 
C|--2-2--x---x--2-2-----2-2---x-x-2-2-------------| x4
G|--2-2--x---x--2-2-----2-2---x-x-2-2--[5]-[6]----|
D|--0-0--x---x--0-0-----0-0---x-x-0-0----------5b-|


[Chorus]

"No puedes ser lo que quieras ser..."

D|--------------------------------------------------|
A|--8-8-8-8-8-8-8-8-8--6-6---8-8-8------------------|
F|--7-7-7-6-6-6-5-5-5--5-5---7-7-7---------3-3-3--7-|
C|--5-5-5-5-5-5-5-5-5--3-3---5-5-5--3-3-3--3-3-3--7-| x2
G|----------------------------------3-3-3--1-1-1--5-| 
D|----------------------------------1-1-1-----------|

*escucha la cancion para entender los tiempos


[Post-Chorus]

D|-------------------------------------------------------------------------------------------------------|
A|-------------------------------------------------------------------------------------------------------|
F|----9-9---9-9---9-9---9-9---10-10--10-10--10-10--10-10--8-8---8-8---8-8---8-8---9-9---9-9---9-9---9-9--|
C|----9-9---9-9---9-9---9-9---10-10--10-10--10-10--10-10--8-8---8-8---8-8---8-8---9-9---9-9---9-9---9-9--|
G|----7-7---7-7---7-7---7-7---8--8---8--8---8--8---8--8---6-6---6-6---6-6---6-6---7-7---7-7---7-7---7-7--|
D|--0-----0-----0-----0-----0------0------0------0------0-----0-----0-----0-----0-----0-----0-----0------|
    _     _     _     _     _      _      _      _      _     _     _     _     _     _     _     _     
   PM    PM    PM    PM    PM     PM     PM     PM     PM    PM    PM    PM    PM    PM    PM    PM  

D|------------------------------------------------------------------------------|
A|------------------------------------------------------------------------------|
F|------------------------------------------------------------------------------|
C|---9-8---9-8--------9-8---9-8--------9-8---9-8--------9-8----8-9--9/10-10/11--| x2
G|-7-----7-----8-9--7-----7-----7-8--7-----7-----6-7--7-----7-------------------|
D|------------------------------------------------------------------------------|
   _     _          _     _          _     _          _     _
  PM    PM         PM    PM         PM    PM         PM    PM  

D|----------|
A|----------|
F|----------|
C|--2-------|
G|--2-------|
D|--0-------|

*Ahora viene un solo, pero no es en guitarra, es en teclado y
es tocado por el vocalista y tecladista Felo Foncea


[Verse 2]

"Quiero hacer recagar la legalidad...."

D|-----------------------------------------------------|
A|-----------------------------------------------------|
F|-----------------------------------------------------| 
C|--x-x--2-2--x---x--2-2-----2-2---x-x-2-2-------------|
G|--x-x--2-2--x---x--2-2-----2-2---x-x-2-2--[5]-[6]----|
D|--x-x--0-0--x---x--0-0-----0-0---x-x-0-0----------5b-|

D|------------------------------------------------|
A|------------------------------------------------|
F|------------------------------------------------| 
C|--2-2--x---x--2-2-----2-2---x-x-2-2-------------|
G|--2-2--x---x--2-2-----2-2---x-x-2-2--[5]-[6]----|
D|--0-0--x---x--0-0-----0-0---x-x-0-0----------5b-|

D|----------------------------------------------------|
A|----------------------------------------------------| 
F|---------9/----------10/----------------------------| 
C|--2-2----9/---2-2----10/--2-2---x-x-2-2-------------| x2
G|--2-2----7/---2-2----8-/--2-2---x-x-2-2--[5]-[6]----|
D|--0-0--0------0-0--0------0-0---x-x-0-0----------5b-|
        __          __
        PM          PM


[Chorus]

"No puedes ser lo que quieras ser..."

D|----------------------------------------------------|
A|--8-8-8--8-8-8--8-8-8--6-6---8-8-8------------------|
F|--7-7-7--6-6-6--5-5-5--5-5---7-7-7---------3-3-3--7-|
C|--5-5-5--5-5-5--5-5-5--3-3---5-5-5--3-3-3--3-3-3--7-|  x4
G|------------------------------------3-3-3--1-1-1--5-| 
D|------------------------------------1-1-1-----------|


[Post-Chorus]

(Previo al final):


D|------------------------------------------------------------------------------------|
A|------------------------------------------------------------------------------------|
F|----9-9---9-9---9-9---9-9---10-10--10-10--10-10--10-10--11-11--11-11--11-11--11-11--|
C|----9-9---9-9---9-9---9-9---10-10--10-10--10-10--10-10--11-11--11-11--11-11--11-11--|
G|----7-7---7-7---7-7---7-7---8-8----8--8---8--8---8--8---9--9---9--9---9--9---9--9---|
D|--0-----0-----0-----0-----0------0------0------0------0------0------0------0--------|
    _     _     _     _     _      _      _      _      _      _      _      _
    PM    PM    PM    PM    PM    PM    PM    PM    PM    PM    PM    PM    PM    


D|-----------------------------------|
A|-----------------------------------|
F|----12-12---12-12---12-12---12-12--|
C|----12-12---12-12---12-12---12-12--|
G|----10-10---10-10---10-10---10-10--|
D|--0-------0-------0-------0--------|
    _       _       _       _
   PM      PM      PM      PM
D|----------------------------------------------------------------------------------------------------|
A|----------------------------------------------------------------------------------------------------|
F|---13-13---13-13---13-13---13-13---14-14---14-14---14-14---14-14---15-15---15-15---15-15---15-15----|
C|---13-13---13-13---13-13---13-13---14-14---14-14---14-14---14-14---15-15---15-15---15-15---15-15----|
G|---11-11---11-11---11-11---11-11---12-12---12-12---12-12---12-12---13-13---13-13---13-13---13-13----|
D|-0-------0-------0-------0-------0-------0-------0-------0-------0-------0-------0-------0-------0--|
  __      __      __      __      __      __      __      __      __      __      __      __      __
  PM      PM      PM      PM      PM      PM      PM      PM      PM      PM      PM      PM      PM

D|----------------------------------------------------------------------------------------------------|
A|----------------------------------------------------------------------------------------------------|
F|---16-16---16-16---16-16---16-16------9-9---9-9---9-9---9-9---9--9---9-9---9-9---9-9---9-9---9---9--|
C|---16-16---16-16---16-16---16-16------9-9---9-9---9-9---9-9---9--9---9-9---9-9---9-9---9-9---9---9--|
G|---14-14---14-14---14-14---14-14------7-7---7-7---7-7---7-7---7--7---7-7---7-7---7-7---7-7---7---7--|
D|-0-------0-------0-------0-------0--0-----0-----0-----0-----0------0-----0-----0-----0-----0--------|
  __      __      __      __      _____     _     _     _     _      _     _     _     _     _
  PM      PM      PM      PM       PM       PM    PM    PM    PM     PM    PM    PM    PM    PM

D|-------------------|
A|-------------------|
F|-------------------|
C|-5--4--3--2--------|
G|-3--2--1--0--------|
D|-3--2--1--0--------|
   __________
      PM


[Final/Outro]


D|------------------------------------------------------------------------------------|
A|------------------------------------------------------------------------------------|
F|----9-9---9-9---9-9---9-9---10-10--10-10--10-10--10-10--11-11--11-11--11-11--11-11--|
C|----9-9---9-9---9-9---9-9---10-10--10-10--10-10--10-10--11-11--11-11--11-11--11-11--|
G|----7-7---7-7---7-7---7-7---8-8----8--8---8--8---8--8---9--9---9--9---9--9---9--9---|
D|--0-----0-----0-----0-----0------0------0------0------0------0------0------0--------|
    _     _     _     _     _      _      _      _      _      _      _      _
    PM    PM    PM    PM    PM    PM    PM    PM    PM    PM    PM    PM    PM    


D|-----------------------------------|
A|-----------------------------------|
F|----12-12---12-12---12-12---12-12--|
C|----12-12---12-12---12-12---12-12--|
G|----10-10---10-10---10-10---10-10--|
D|--0-------0-------0-------0--------|
    _       _       _       _
   PM      PM      PM      PM
D|----------------------------------------------------------------------------------------------------|
A|----------------------------------------------------------------------------------------------------|
F|---13-13---13-13---13-13---13-13---14-14---14-14---14-14---14-14---15-15---15-15---15-15---15-15----|
C|---13-13---13-13---13-13---13-13---14-14---14-14---14-14---14-14---15-15---15-15---15-15---15-15----|
G|---11-11---11-11---11-11---11-11---12-12---12-12---12-12---12-12---13-13---13-13---13-13---13-13----|
D|-0-------0-------0-------0-------0-------0-------0-------0-------0-------0-------0-------0-------0--|
  __      __      __      __      __      __      __      __      __      __      __      __      __
  PM      PM      PM      PM      PM      PM      PM      PM      PM      PM      PM      PM      PM

D|----------------------------------------------------------------------------------------------------|
A|----------------------------------------------------------------------------------------------------|
F|---16-16---16-16---16-16---16-16------9-9---9-9---9-9---9-9---9--9---9-9---9-9---9-9---9-9---9---9--|
C|---16-16---16-16---16-16---16-16------9-9---9-9---9-9---9-9---9--9---9-9---9-9---9-9---9-9---9---9--|
G|---14-14---14-14---14-14---14-14------7-7---7-7---7-7---7-7---7--7---7-7---7-7---7-7---7-7---7---7--|
D|-0-------0-------0-------0-------0--0-----0-----0-----0-----0------0-----0-----0-----0-----0--------|
  __      __      __      __      _____     _     _     _     _      _     _     _     _     _
  PM      PM      PM      PM       PM       PM    PM    PM    PM     PM    PM    PM    PM    PM

D|----------|
A|----------|
F|--9/------|
C|--9/------|
G|--7/------|
D|--0-------|


Y eso seria todo, no e sacado el solo, pero fuera de eso la cancion esta completa.





************************************
h   hammer on 
p   pull off 
b   bend string up
r   release bend
/   slide up
\   slide down
v   vibrato (sometimes written as ~)
t   tap (with strumming hand)
x   muted, struck string

************************************

            
            
Suggest correction
Creating personal tab
Creating personal tab
You can edit any tab online and save it as your Personal.

You can edit, replace or remove any tab part or add personal notes – all changes will be seen only by you.

Personal tabs can be accessed anytime from any device, even offline.
Learn more »
Give kudos to tab author, rate the tab!
1 2 3 4 5
comments
print report bad tab
guest
You may want to rate the tab now too:
select rating
Wanna post a correction for this tab? Suggest correction