Oops, an error
Loading. Please wait.

April Sun In Cuba Tab

6,379 views 6 this week
4 commentsread comments
1 2 3 4 5
x 4
add to favorites
launch autoscroll
font size
0
reset
how to read this tab
guitar tuner
Autoscroll
slow
fast
+/-
esc
set tempo
stop
Help us to improve Ultimate-Guitar.com Take our survey!
×
Difficulty
novice
-------------------------------------------------------------------------------
                          APRIL SUN IN CUBA - Dragon
-------------------------------------------------------------------------------
Tabbed by: Clookid (Charles)
Email: clookid@gmail.com

Tuning: Standard (eBGDAE)

   Asus2         A
e|-------------|-------------|
B|-3-3--3--3-3-|-3-3--3--3-3-|
G|-2-2--2--2-2-|-3-3--3--3-3-|
D|-------------|-------------|
A|-------------|-------------|
E|-------------|-------------|

Keep repeating throughout introduction and first verse.
Suggest correction
comments
print report bad tab
4 comments total. Showing first comments.
0 reply
thebrakester 65 Jan 14, 2008 05:37 PM

Wrong!
Surely the intor should be:-
Asus2
A
e|-------------|-------------|
B|-3-3--3--3-3-|-2-2--2--2-2-|
G|-2-2--2--2-2-|-2-2--2--2-2-|
D|-------------|-----
--------|
A|-------------|-------------|
E|-------------|-------------|

thebrakester

0 reply
areuinsane 10 Apr 04, 2009 10:42 PM

dude i cant believe you tabbed a shitty intro like this and got it wrong. its so simple. lol

0 reply
Kcd 10 Aug 15, 2010 04:06 AM

EWWWW YUCK, SO BAD!
Look for my better one ok!!
GO Dragon!
Saw them live a month or to ago in south island NZ

guest
You may want to rate the tab now too:
select rating
Wanna post a correction for this tab? Suggest correction