Oops, an error
Loading. Please wait.

Dreams Of Ordinary Men Bass Tab

689 views 1 this week
no commentswrite comment
1 2 3 4 5
please rate
add to favorites
launch autoscroll
font size
0
reset
guitar tuner
Autoscroll
slow
fast
+/-
esc
set tempo
stop
Help us to improve Ultimate-Guitar.com Take our survey!
×
DRAGON - "Dreams Of Ordinary Men" - Bass Tab

Common Time(4/4)
Drop D Tuning(DADG)


INTRO:
                                                           (x2)
G|-----|--------------|-----------|-------------|--------------|
D|-----|*-------------|-----------|-------------|-------------*|
A|-----|*-------5-----|-------5---|-------5-----|-------5-----*|
D|-r-r-|--2---5-----5-|-2---5---5-|-0---5-----5-|-2---5-----5--|
   1 2    1 2 & 3 4 &   1 2 & 3 4   1 2 & 3 4 &   1 2 & 3 4 &


VERSES/SOLO:
                                                     (x4)
G|--------------|-----------|-------------|--------------|
D|*-------------|-----------|-------------|-------------*|
A|*-------5-----|-------5---|-------5-----|-------5-----*|
D|--2---5-----5-|-2---5---5-|-0---5-----5-|-2---5-----5--|
    1 2 & 3 4 &   1 2 & 3 4   1 2 & 3 4 &   1 2 & 3 4 &


1ST CHORUS:
G|-------------|-----------|-------------|-------------|
D|-------------|-----------|-------------|-------------|
A|-------------|-----------|-------------|-------------|
D|-3---3-5---5-|-7---7-7---|-0-2-3-----5-|-7---5-5---3-|
   1 2 & 3 4 &   1 2 & 3 4   1 2 & 3 4 &   1 2 & 3 4 &

G|-------------|-----------|-------------|-----------|
D|-------------|-----------|-------------|-----------|
A|-3---3-2---2-|-0---0-0---|-------------|-----------|
D|-------------|-----------|-0-2-3-----5-|-7---5-5---|
   1 2 & 3 4 &   1 2 & 3 4   1 2 & 3 4 &   1 2 & 3 4


2ND CHORUS:
G|------------------|-----------------|-----------------|
D|*-----------------|-----------------|-----------------|
A|*-----------------|-----------------|-----------------|
D|--3-3-3-3-5-5-5-5-|-7-7-7-7-7-7-7-7-|-0-0-2-3-3-3-3-5-|
    1 & 2 & 3 & 4 &   1 & 2 & 3 & 4 &   1 & 2 & 3 & 4 &

G|-----------------|-----------------|-----------------|
D|-----------------|-----------------|-----------------|
A|-----------------|-3-3-3-3-2-2-2-2-|-0-0-0-0-0-0-0-0-|
D|-7-7-7-5-5-5-5-5-|-----------------|-----------------|
   1 & 2 & 3 & 4 &   1 & 2 & 3 & 4 &   1 & 2 & 3 & 4 &

G|-----------------|------------------|
D|-----------------|-----------------*|
A|-----------------|-----------------*|(x2)
D|-0-0-2-3-3-3-3-5-|-7-7-7-5-5-5-5-5--|
   1 & 2 & 3 & 4 &   1 & 2 & 3 & 4 &  


MIDDLE:
G|-------------|---------------|-------------|-------------|
D|-------------|---------------|-------------|-------------|
A|-0---0-0---0-|-0---0-0-2-3-4-|-5---5-5---5-|-3---3-3---3-|
D|-------------|---------------|-------------|-------------|
   1 2 & 3 4 &   1 2 & 3 & 4 &   1 2 & 3 4 &   1 2 & 3 4 &

G|-------------|-------------|-------------|-----------|
D|-------------|-------------|-------------|-----------|
A|-1---1-1-----|-1---1-1---1-|-3---3-3---3-|-3---3-3---|
D|-----------3-|-------------|-------------|-----------|
   1 2 & 3 4 &   1 2 & 3 4 &   1 2 & 3 4 &   1 2 & 3 4  
 
G|-----------------|-----------------|
D|-----------------|-----------------|
A|-5-5-5-5-5-5-5-5-|-5-5-5-5-5-5-5-5-|
D|-----------------|-----------------|
   1 & 2 & 3 & 4 &   1 & 2 & 3 & 4 &


END:
G|-------------|-----------|-------------|-------------|
D|-------------|-----------|-------------|-------------|
A|-------------|-----------|-------------|-------------|
D|-3---3-5---5-|-7---7-7---|-0-2-3-----5-|-7---5-5---3-|
   1 2 & 3 4 &   1 2 & 3 4   1 2 & 3 4 &   1 2 & 3 4 &

G|-------------|-----------|-------------|-----------|
D|-------------|-----------|-------------|-----------|
A|-3---3-2---2-|-0---0-0---|-------------|-----------|
D|-------------|-----------|-0-2-3-----5-|-7---5-5---|
   1 2 & 3 4 &   1 2 & 3 4   1 2 & 3 4 &   1 2 & 3 4

G|------------------|-----------------|-----------------|
D|*-----------------|-----------------|-----------------|
A|*-----------------|-----------------|-----------------|
D|--3-3-3-3-5-5-5-5-|-7-7-7-7-7-7-7-7-|-0-0-2-3-3-3-3-5-|
    1 & 2 & 3 & 4 &   1 & 2 & 3 & 4 &   1 & 2 & 3 & 4 &

G|-----------------|-----------------|-----------------|
D|-----------------|-----------------|-----------------|
A|-----------------|-3-3-3-3-2-2-2-2-|-0-0-0-0-0-0-0-0-|
D|-7-7-7-5-5-5-5-5-|-----------------|-----------------|
   1 & 2 & 3 & 4 &   1 & 2 & 3 & 4 &   1 & 2 & 3 & 4 &

G|-----------------|------------------|
D|-----------------|-----------------*|
A|-----------------|-----------------*|(x3 to fade-out)
D|-0-0-2-3-3-3-3-5-|-7-7-7-5-5-5-5-5--|
   1 & 2 & 3 & 4 &   1 & 2 & 3 & 4 &  


By: Johari Taylor
E-mail: viking@powerup.com.au
More Bass Tabs: http://www.powerup.com.au/~viking/basstab.htm


Suggest correction
Give kudos to tab author, rate the tab!
1 2 3 4 5
comments
print report bad tab
guest
You may want to rate the tab now too:
select rating
Please do not post tabs as comments. Select "correction" instead!