Oops, an error
Loading. Please wait.

Oh Grey Warden tab

1,810 views 30 this week
1 commentread comment
1 2 3 4 5
1 last vote to show rating
add to favorites
×
Save as Personal and add changes to this tab that will be seen only by you. Learn more ›
×
You can save this tab as Personal to edit and correct it or add notes. All changes will be seen only by you. Learn more »
launch autoscroll
font size
0
reset
how to read this tab
guitar tuner
edit
Autoscroll
slow
fast
+/-
esc
set tempo
stop
Author
Difficulty
This is my first tab and I'll be completely honest and say I have no idea how this
formatting works so some notes could be out but if you know the tune,
it should hopefully suffice! 


-------------------------------------------------------------------------------
                Dragon Age: Inquisition - Oh, Grey Warden
-------------------------------------------------------------------------------
Tabbed by: Anton
E-mail: Pyladesblooming@gmail.com

Tuning: Standard

    Oh, Grey Warden,     what have you done?    the oath that you have taken 
e|-------------------------------------------------------0-------1--0--------|
B|-------0-1---0-------------------0-1---0-------1--3----1----1---------3--0-|
G|---2-------------0-----------2-------------0--------------------------0----|
D|---2----------------2--------2---------------------------------------------|
A|---0-------------------------0-------------------------3-------------------|
E|-------------0-------------------------0------------------------------3----|

      is all but broken.           All is undone.          Demons have come
e|---------------------------------------------------------------------------|
B|---0-------1----0-------------------------0--1--0----------0--1--3--1--0---|
G|-------2--------0-----2---------2--0--2----------------2-----------------0-|
D|---------------------------------------------------------------------------|
A|-------0--------3-----0---------0---------------0------0-------------------|
E|-----------------------------------------------------------------------0---|

      To destroy this peace         We have had for so long
e|---------0--1--0-----0-----------------------------------------------------|
B|--1--3---1--------3-----1--3------0--------0--1---0------------------------|
G|-------------------------------------0--2---------0----2-------------------|
D|---------------------------------------------------------------------------|
A|---------3-----------------0------------0--------------0-------------------|
E|---------------------------3----------------------3------------------------|

     Ally or foe?     Maker only knows.   Ally or foe? The Maker only knows. 
e|--0---3----2---0--------0---3---2---0----0---3--2--0--3--2--0--3--2--0-----|
B|--------------------0------------------------------------------------------|
G|---------------------------------------------------------------------------|
D|---------------------------------------------------------------------------|
A|---------------------------------------------------------------------------|
E|--0------------0--------0-----------0----0---------0--------0--------0-----|

 The stronghold lives on   And the Army's   reborn    Compelled to forge on.
e|------0------1--0------------------------------------0---0-----1---0-------|
B|--0---1---1---------3------0------1---3---1----0---------1---1---------3---|
G|--------------------0---------0----------------------------------------0---|
D|---------------------------------------------------------------------------|
A|------3-------------3-------------0----------------------3-----------------|
E|-----------------------------------------------0-----------------------3---|

    What will we become?    Can you be forgiven   When the cold grave has come?
e|----------------------------0-----0--1--0----------------------------------|
B|--0----------1---0----------------3---------3----0------1--0--1--3--1---0--|
G|-----0---2-------0---2-------------------------------0---------------------|
D|---------------------------------------------------------------------------|
A|---------0-------3---0------3---------------------------0---------------0--|
E|--------------------------------------------3------------------------------|
    Or will you have won      Or will battle rage on?
e|------0-----0--1--0--------------------------------------------------------|
B|--0------3------------3-----0---------0--1---0-----------------------------|
G|-------------------------------0---2---------0---2-------------------------|
D|-------------------------------------------------2-------------------------|
A|------3---------------3------------0-------------0-------------------------|
E|---------------------------------------------3-----------------------------|

    Oh, Grey Warden,     what have you done?    the oath that you have taken 
e|-------------------------------------------------------0-------1--0--------|
B|-------0-1---0-------------------0-1---0-------1--3----1----1---------3--0-|
G|---2-------------0-----------2-------------0--------------------------0----|
D|---2----------------2--------2---------------------------------------------|
A|---0-------------------------0-------------------------3-------------------|
E|-------------0-------------------------0------------------------------3----|

      is all but broken.           All is undone.          Ash in the sun.
e|---------------------------------------------------------------------------|
B|---0-------1----0-------------------------0--1--0----------0--1--3--1--0---|
G|-------2--------0-----2---------2--0--2----------------2-----------------0-|
D|---------------------------------------------------------------------------|
A|-------0--------3-----0---------0---------------0------0-------------------|
E|-----------------------------------------------------------------------0---|

      Cast into darkness,            The light we had won.
e|---------0--1--0-----0-----------------------------------------------------|
B|--1--3---1--------3-----1--3------0--------0--1---0------------------------|
G|-------------------------------------0--2---------0----2-------------------|
D|---------------------------------------------------------------------------|
A|---------3-----------------0------------0--------------0-------------------|
E|---------------------------3----------------------3------------------------|

************************************

| /   slide up
| \   slide down
| h   hammer-on
| p   pull-off
| ~   vibrato
| +   harmonic
| x   Mute note
| b   Bend
| pb  Pre-bend
| br  Bend release
| pbr Pre-bend release
| brb Bend release bend

************************************
Suggest correction
Creating personal tab
Creating personal tab
You can edit any tab online and save it as your Personal.

You can edit, replace or remove any tab part or add personal notes – all changes will be seen only by you.

Personal tabs can be accessed anytime from any device, even offline.
Learn more »
Give kudos to tab author, rate the tab!
1 2 3 4 5
comments
print report bad tab
1 comment total.
0 reply
jamiesimpson1 134 Jan 23, 2016 11:15 AM

This is awesome.

guest
You may want to rate the tab now too:
select rating
Wanna post a correction for this tab? Suggest correction