Oops, an error
Loading. Please wait.

Freedom Of Expression Tab

version 1
version 1

Whole song

Interactive

1,153 views 6 this week
no commentswrite comment
1 2 3 4 5
please rate
add to favorites
launch autoscroll
font size
0
reset
how to read this tab
guitar tuner
Autoscroll
slow
fast
+/-
esc
set tempo
stop
Help us to improve Ultimate-Guitar.com Take our survey!
×
Author
-------------------------------------------------------------------------------
                             Freedom Of Expression - Dragon Ash
-------------------------------------------------------------------------------
Tabbed by:
Email:

Tuning: Standard

Intro:
e|----12----14-12-------------12----14-12----|
B|-12----12-------12-12---12-----12-------12-|
G|-------------------------------------------| (Play 8X)
D|-------------------------------------------|
A|-------------------------------------------|
E|-------------------------------------------|

e|-------------------------------------------|
B|----14-----16-14----------14----16-14------|
G|-13----13--------13----13----13-------13---|
D|-------------------------------------------|
A|-------------------------------------------|
E|-------------------------------------------|

e|----12----14-12------------12-----14--12------|
B|-12----12-------12-12---12---12---------12----|(Play 3X)
G|----------------------------------------------|
D|----------------------------------------------|
A|----------------------------------------------|
E|----------------------------------------------|

e|-----12----14-12-------------12----14---------|
B|--12----12-------12-12----12----12------------|
G|----------------------------------------------|
D|----------------------------------------------|
A|--------------------------------------9-9-9---|
E|--------------------------------------7-7-7---|

Part 1 of Verse 1 and 2: (Play 2x)
e|--------------------------------------------------------------------|
B|--------------------------------------------------------------------|
G|--------------------------------------------------------------------|
D|-9-----9-----9----9-----9-----9----6-----6-----6----4-----4-----4---|(2x)
A|-7-7-7-7-7-7-7-7--6-6-6-6-6-6-6-6--4-4-4-4-4-4-4-4--2-2-2-2-2-2-2-2-|
E|--------------------------------------------------------------------|
 Part 2 of Verse 1 and 2 
e|---------------------------------------------------------------|
B|---------------------------------------------------------------|
G|---------------------------------------------------------------|
D|-6-x-x---x-x-----x-x-4-x-x---6-x-x---x-x-------x-x-9-9-9-------|
A|-4-x-x-6-x-x---7-x-x-2-x-x---4-x-x-6-x-x---7-x-x-x-9-9-9-------|
E|---x-x-4-x-x---5-x-x---x-x-----x-x-4-x-x---5-x-x---7-7-7-------|

  Chorus 1
e|--------------------------------|
B|--------------------------------|
G|--------------------------------| (Play 3X)
D|-9--9-9-------------------------|
A|-7--7-7--9-9-9-9--7--7-7-x-9*---|
E|---------7-7-7-7--5--5-5-7-7*---|

e|--------------------------------------|
B|--------------------------------------|
G|--------------------------------------|
D|-9--9-9-------------------------------|
A|-7--7-7--9-9-9-9-11-11-11-11-x--9-9-9-|
E|---------7-7-7-7--9--9--9--9-x--7-7-7-|


e|----------------------------------------------------------------------|
B|----------------------------------------------------------------------|
G|----------------------------------------------------------------------|
D|-9-9-9-9-9-9-9-9--9-9-9-9-9-9-9-9--6-6-6-6-6-6-6-6--4-4-4-4-4-4-4-4---|
A|-7-7-7-7-7-7-7-7--6-6-6-6-6-6-6-6--4-4-4-4-4-4-4-4--2-2-2-2-2-2-2-2---|
E|----------------------------------------------------------------------|

e|----------------------------------------------------------------------|
B|----------------------------------------------------------------------|
G|----------------------------------------------------------------------|
D|-9-9-9-9-9-9-9-9--9-9-9-9-9-9-9-9--6-6-6-6-6-6-6-6--4-4-4-4-x-4-4-4---|
A|-7-7-7-7-7-7-7-7--6-6-6-6-6-6-6-6--4-4-4-4-4-4-4-4--2-2-2-2-x-2-2-2---|
E|------------------------------------------------------------x---------|
go back to Verses

After Part 2 of Verse 2
e|---------------------------------------------------------------------|
B|---------------------------------------------------------------------|
G|---------------------------------------------------------------------|
D|-----------------------------------9----x----------------------------|
A|-7-7-7-7-7-7-7-7--9-9-9-9-9-9-9-9--7----x--9---x---11--x--11-11-9-9--|
E|-5-5-5-5-5-5-5-5--7-7-7-7-7-7-7-7----------7---x----9--x---9-9--7-7--|


e|--------------------------------------------------------------------|
B|--------------------------------------------------------------------|
G|--------------------------------------------------------------------|
D|---------------------------------9---x------------------------------|
A|-7--7-7-7-7-7-7--9--9-9-9-9-9-9--7---x---9---x---11---x---11-11-9-9-|
E|-5--5-5-5-5-5-5--7--7-7-7-7-7-7----------7---x----9---x----9--9-7-7-|

e|---------------------------------|
B|---------------------------------|
G|---------------------------------|
D|---------------------------------|
A|-7--7-7-7-7-7-7--9-9-9-9-9--|
E|-5--5-5-5-5-5-5--7-7-7-7-7--|

Chorus 2
e|--------------------------------|
B|--------------------------------|
G|--------------------------------| (Play 3X)
D|-9--9-9-------------------------|
A|-7--7-7--9-9-9-9--7--7-7-x-9*---|
E|---------7-7-7-7--5--5-5-7-7*---|



e|--------------------------------------|
B|--------------------------------------|
G|--------------------------------------|
D|-9--9-9-------------------------------|
A|-7--7-7--9-9-9-9-11-11-11-11-x--9-9-9-|
E|---------7-7-7-7--9--9--9--9-x--7-7-7-|

e|--------------------------------|
B|--------------------------------|
G|--------------------------------| (Play 3X)
D|-9--9-9-------------------------|
A|-7--7-7--9-9-9-9--7--7-7-x-9*---|
E|---------7-7-7-7--5--5-5-7-7*---|

e|--------------------------------------|
B|--------------------------------------|
G|--------------------------------------|
D|-9--9-9-------------------------------|
A|-7--7-7--9-9-9-9-11-11-11-11-x--9-9-9-|
E|---------7-7-7-7--9--9--9--9-x--7-7-7-|

e|---------------------------------------------------------------------|
B|---------------------------------------------------------------------|
G|---------------------------------------------------------------------|
D|-9-9-9-9-9-9-9-9--9-9-9-9-9-9-9-9--6-6-6-6-6-6-6-6--4-4-4-4-4-4-4-4--|(X2)
A|-7-7-7-7-7-7-7-7--6-6-6-6-6-6-6-6--4-4-4-4-4-4-4-4--2-2-2-2-2-2-2-2--|
E|---------------------------------------------------------------------|


e|---------------------------------------------------------------
B|---------------------------------------------------------------
G|---------------------------------------------------------------
D|-9-x-x-9-x-x-9-x-x-9--9-x-x-9-x-x-9-x-x-9--6-x-x-6-x-x-6-x-x-6-
A|-7-x-x-7-x-x-7-x-x-7--6-x-x-6-x-x-6-x-x-6--4-x-x-4-x-x-4-x-x-4-
E|---------------------------------------------------------------
  
  ---------------------|
  ---------------------|
  ---------------------|
  -4-x-x-4-x-x-4-x-x-4-|
  -2-x-x-2-x-x-2-x-x-2-|
  ---------------------|

e|---------------------------------------------------------------
B|---------------------------------------------------------------
G|---------------------------------------------------------------
D|-9-x-x-9-x-x-9-x-x-9--9-x-x-9-x-x-9-x-x-9--6-x-x-6-x-x-6-x-x-6-
A|-7-x-x-7-x-x-7-x-x-7--6-x-x-6-x-x-6-x-x-6--4-x-x-4-x-x-4-x-x-4-
E|---------------------------------------------------------------

  ------------------------|
  ------------------------|
  ------------------------|
  -4-x-x-4-x-x-4-4-4-4----|
  -2-x-x-2-x-x-2-2-2-2----|
  ------------------------|

Outro:
e|------------------------------------------|
B|----9-----------9----------5---9----------|
G|----9---9---------9--------6---9----------|
D|----9---9-----------9---6--6---9----------|
A|-7------6----6----------4------7----------|
E|------------------------------------------|








| /  slide up
| \  slide down
| h  hammer-on
| p  pull-off
| ~  vibrato
| +  harmonic
| x  Mute note
| *  Bend String
Suggest correction
Give kudos to tab author, rate the tab!
1 2 3 4 5
comments
print report bad tab
guest
You may want to rate the tab now too:
select rating
Please do not post tabs as comments. Select "correction" instead!