Oops, an error
Loading. Please wait.

Sorriso Resplandescente chords

25 views 3 this week
no commentswrite comment
1 2 3 4 5
3 more votes to show rating
add to favorites
×
Save as Personal and add changes to this tab that will be seen only by you. Learn more ›
×
You can save this tab as Personal to edit and correct it or add notes. All changes will be seen only by you. Learn more »
launch autoscroll
font size
0
reset
transpose
0
reset
display chords
guitar tuner
edit
Autoscroll
slow
fast
+/-
esc
set tempo
stop
Strumming
There is no strumming pattern for this song yet. and get +5 IQ
[Intro]
Riff 1:
E|----------------------3-3-----3-5-3-----------------------------------5-3---------------------------|
B|--------------------------5-6-------6-5----5-5-----5-6-5----------------------3-5-6-5-3---3-3-------|
G|------0---0---0---0----------------------7-----5-7--------7-5-4-2-2-5------5------------5-----4-5-4-|
D|--------3---2---0-----------------------------------------------------------------------------------|
A|----------------------------------------------------------------------------------------------------|
E|----------------------------------------------------------------------------------------------------|

Riff 2 - tocado durante a parte G# A# C:
E|----------------------------------------------|
B|-/9-8--------------/11--9-8-------------------|
G|------10--8-7h8-------------10-8h10-10/12~----|
D|----------------------------------------------|
A|----------------------------------------------|
E|----------------------------------------------|


C                   G           Am                Em           F
Seu sorriso é tão resplandecente, que deixou meu coração alegre
       Em Am       Dm           G           G#  A#  C
Me dê a mão , prá fugir desta terrivel escuridão
Fm                 Bb            Gm
Desde o dia em que eu te reencontrei,
              Cm            Fm
Me lembrei daquele lindo lugar,
                G           Cm           D#
Que na minha infância era especial para mim
         G#             Bb              Gm
Quero saber se comigo você quer vir dançar,
             Cm            Fm
Se me der a mão eu te levarei,
          G              Cm           D#
Por um caminho cheio de sombras e de luz.
      G#             Bb
Você pode até não perceber,
              Gm
Mas o meu coração se amarrou em você,
            Cm         F
Que precisa de alguém pra te mostrar
     A#                  G (riff 1)
O amor que o mundo te dá.

Riff 1:
E|----------------------3-3-----3-5-3-----------------------------------5-3------------------------------|
B|--------------------------5-6-------6-5----5-5-----5-6-5----------------------3-5-6-5-3---5-6-3--------|
G|------0---0---0---0----------------------7-----5-7--------7-5-4-2-2-5------5------------5--------------|
D|--------3---2---0--------------------------------------------------------------------------------------|
A|-------------------------------------------------------------------------------------------------------|
E|-------------------------------------------------------------------------------------------------------|

Riff 1:
E|--3-3-----3-5-3-----------------------------------5-3------------------------------|
B|------5-6-------6-5----5-5-----5-6-5----------------------3-5-6-5-3---3-3----------|
G|---------------------7-----5-7--------7-5-4-2-2-5------5------------5-----4-5-4----|
D|-----------------------------------------------------------------------------------|
A|-----------------------------------------------------------------------------------|
E|-----------------------------------------------------------------------------------|

C               G            Am               Em          F
Meu alegre coração palpita, por um universo de esperança.
          Em Am      Dm      E G
Me dê a mão, a magia nos espera.
C                      G
Vou te amar por toda a minha vida,
Am              Em            F
Vem comigo por este caminho.
         Em Am     Dm                 G      G# A# C (riff 2)
Me dê a mão, pra fugir desta terrível escuridão.

E|----------------------------------------------|
B|-/9-8--------------/11--9-8-------------------|
G|------10--8-7h8-------------10-8h10-10/12~----|
D|----------------------------------------------|
A|----------------------------------------------|
E|----------------------------------------------|

Fm            Bb            Gm
Haja o que houver eu te amarei
              Cm                  Fm
E Quero para sempre ao seu lado estar,
             G              Cm             D#
Deixe de pensar em tudo que já ficou para trás.
         G#             Bb              Gm
Quero saber se é comigo que você vai sonhar,
                Cm               Fm
Se não tenho alguém em quem confiar,
          G                Cm             D#
Já não encontro o caminho que me leve a você
         G#                 Bb
Quando enfim consegui confessar
              Gm
Todo meu sentimento e desejo de amar,
              Cm
Não sei o que me parou,
F                  A#                    G (riff 1)
Mas hoje eu vou lutar com tudo o que sou.



************************************

| /  Slide up
| h  Hammer-on
| ~  Vibrato
 

************************************

            
            
Suggest correction
Creating personal tab
Creating personal tab
You can edit any tab online and save it as your Personal.

You can edit, replace or remove any tab part or add personal notes – all changes will be seen only by you.

Personal tabs can be accessed anytime from any device, even offline.
Learn more »
Give kudos to tab author, rate the tab!
1 2 3 4 5
comments
print report bad tab
guest
You may want to rate the tab now too:
select rating
Wanna post a correction for this tab? Suggest correction