Oops, an error
Loading. Please wait.

Let It Go bass

829 views 1 this week
no commentswrite comment
1 2 3 4 5
3 more votes to show rating
add to favorites
×
Save as Personal and add changes to this tab that will be seen only by you. Learn more ›
×
You can save this tab as Personal to edit and correct it or add notes. All changes will be seen only by you. Learn more »
launch autoscroll
font size
0
reset
guitar tuner
edit
Autoscroll
slow
fast
+/-
esc
set tempo
stop
-------------------------------------------------------------------------------
LET IT GO - Dragonette
-------------------------------------------------------------------------------
Tabbed by: WibbleWobble
E-mail: organisedchaos@talktalk.net

Tuning: standard EADG
A simnple,  but truly great,  pop song
It's only two parts, 
the main and the chorus

bass comes in @00:41
Main Part
G|------------------------------3-3-------------------------------------------|
D|----------5-5-3-3-3---------------3-3-3-----------5-5-3-3-3-----------------|
A|-6-6-6-6------------6-6-6-6---------------6-6-6-6-----------6-6-6-6---------|
E|----------------------------------------------------------------------------|

CHORUS (repeat twice)
G|----------------------------------------3-3-3-3-----------------------------|
D|-----------3-5-5-5-3-3-3-3----------------------3-3-3-3---------------------|
A|-6-6-6-6-6-----------------6-6-6-6-6----------------------------------------|
E|----------------------------------------------------------------------------|

Repeat main part x 3
Repeat chorus x 3
Bass rests 02:22-02:49
Play chorus again but just finish on F (let it gooooooooooo.....)

            
            
Suggest correction
Creating personal tab
Creating personal tab
You can edit any tab online and save it as your Personal.

You can edit, replace or remove any tab part or add personal notes – all changes will be seen only by you.

Personal tabs can be accessed anytime from any device, even offline.
Learn more »
Give kudos to tab author, rate the tab!
1 2 3 4 5
comments
print report bad tab
guest
You may want to rate the tab now too:
select rating
Wanna post a correction for this tab? Suggest correction