Oops, an error
Loading. Please wait.

Avant La Tempete Tab

version 2
version 2

Whole song

Interactive

641 views 3 this week
no commentswrite comment
1 2 3 4 5
please rate
add to favorites
launch autoscroll
font size
0
reset
how to read this tab
guitar tuner
Autoscroll
slow
fast
+/-
esc
set tempo
stop
Help us to improve Ultimate-Guitar.com Take our survey!
×
Contributor
Difficulty
intermediate
1st guitar toute la musique (all music) :

E---------------------------------------|
B---------------------------------------|
G---6---7-6-4-4-6-2----1-2-1-4-2-1------|      x2
D-4---4--------------4-------------2--4-| (2nde fois)
A-------------------------------------4-| (1ere fois)
E---------------------------------------|

E------------------------------4/5/7-9-10-12-9--9-17-16-14-14-12-9-12-14-9-|
B---------------------------5/7--------------------------------------------|
G-6-4-7-6-4------------4/6/7-----------------------------------------------|
D-----------7-4---4/6/7----------------------------------------------------|
A--------------------------------------------------------------------------|
E--------------------------------------------------------------------------|

E-7-9-5--4-5-2--0-2------------2-2-4-5-------------5---------7--------17---|
B-------------------1---0-2------------3-3-5-7--2-2--2-3-2-3---1/2/1-------|
G---------------------------2----------------------------------------------|
D--------------------------------------------------------------------------|
A--------------------------------------------------------------------------|
E--------------------------------------------------------------------------|

E-14-----------------------------------------------------------------------|
B----14--------------------------------------------------------------------|
G-------14-14-13-11-13-13--14-16-13-----6---7-6-4-4-6-2----1-2-1-4-2-1-2-4-|
D-------------------------------------4---4--------------4-----------------|
A--------------------------------------------------------------------------|
E--------------------------------------------------------------------------|

E-----------0-2-5-7-5-4---9---10-9-7-7-9-5--2-4-5-4-7-5-4-0-0-2------------|
B---------2-------------7---7-----------------------------------2/2/0/0/2--|
G-----2-4------------------------------------------------------------------|
D-2-4----------------------------------------------------------------------|
A--------------------------------------------------------------------------|
E--------------------------------------------------------------------------|

E-5-5-5-5--4-4-4-4--2-2-2-2--2-2-2-2--7-7-7-7--9-7-5-7-4---7---10---13-----|
B--2-2-2-2--2-2-2-2--2-2-2-2--2-2-2-2--7-7-7-7-----------------------------|
G--------------------------------------------------------6---6----6--------|
D----------------------------------------------------------------------11--|
A--------------------------------------------------------------------------|
E--------------------------------------------------------------------------|

E-16→-14→
B-----14→-|
G-----14→-|
D--------------|
A--------------|
E--------------|


intro :

E-----2---4---2---5-4-2---4-5-2-------2---4---2---5-4-2---4-5-2-----------2-|
B---2---2---2---2-------2-------2---2---2---2---2-------2-------2-----3-----|
G-------------------------------------------------------------------2---2---|
D-4-------------------------------4-------------------------------0---------|
A---------------------------------------------------------------------------|
E---------------------------------------------------------------------------|

E---------------4-----------2---4---2---5-4-2---2-----------------------|
B-3---3-----5-----5---5---2---2---2---2-------2-------------------------|
G---2-----4---4-----4---------------------------------------------------| et basse pour la 1re partie
D-------2---------------4------------------------  and bass for part 1--|
A-----------------------------------------------------------------------|
E-----------------------------------------------------------------------|
comments
We did not receive enough feedback on this tab! Please rate:
print report bad tab
1 2 3 4 5
I want to post or [tab]
guest
You may want to rate the tab now too:
select rating
Please do not post tabs as comments. Select "correction" instead!