Oops, an error
Loading. Please wait.

Cry Of The Brave Bass Tab

version 1
version 1

Whole song

Interactive

250 views 1 this week
no commentswrite comment
1 2 3 4 5
3 more votes to show rating
add to favorites
launch autoscroll
font size
0
reset
guitar tuner
Autoscroll
slow
fast
+/-
esc
set tempo
stop
Help us to improve Ultimate-Guitar.com Take our survey!
×
Author
Tabbed By : manofmusic
e-mail: TheIrishBub@hotmail.com

-------------------------------------------------------------------------------

Note: This is my first ever contribution here on ultimate-guitar.com. If you
see any errors or mistakes, or if you want to use this on your website, or if
you want to use this for any reason at all that is not for private or personal
use, please send me an e-mail. I will try to respond in a timely fashion.
Thanks in advance!

About this tab: I have included the chords along with the tablature, so that if
you want to improvise on some parts (as I sometimes do!), they are there as a
reference. This is why I have tabbed only the root notes of each chord as the
bass line. When this song was originally recorded in 2004, Adrian Lambert used
a 6-string bass. I do have a 6-string, but because the high C-string is not
used in this song, and because not everybody has a 6-string bass, I have tabbed
this song for a 5-string bass guitar instead. Lastly, I will try to tab the
song the way Adrian played on the album.

Enjoy!

-------------------------------------------------------------------------------

Tuning: 5-String standard (B E A D G)

Q=215

Intro
    F#m                               E
    E E E E E E E E  E E E E E E E E  E E E E E E E E  E E E E E E E E 
G| |----------------|----------------|----------------|----------------|
D|4|----------------|----------------|----------------|----------------|
A|/|----------------|----------------|----------------|----------------|
E|4|2-2-2-2-2-2-2-2-|2-2-2-2-2-2-2-2-|0-0-0-0-0-0-0-0-|0-0-0-0-0-0-0-0-|
B| |----------------|----------------|----------------|----------------|

  D                                 E
  E E E E E E E E  E E E E E E E E  E E E E E E E E  E E E E E E E E 
G|----------------|----------------|----------------|----------------|
D|----------------|----------------|----------------|----------------|
A|----------------|----------------|----------------|----------------|
E|----------------|----------------|0-0-0-0-0-0-0-0-|0-0-0-0-0-0-0-0-|
B|3-3-3-3-3-3-3-3-|3-3-3-3-3-3-3-3-|----------------|----------------|

  F#m                               E
  E SSSSSSSSSSSSSS SSSSSSSSSSSSSSSS E SSSSSSSSSSSSSS SSSSSSSSSSSSSSSS
G|----------------|----------------|----------------|----------------|
D|----------------|----------------|----------------|----------------|
A|----------------|----------------|----------------|----------------|
E|2-22222222222222|2222222222222222|0-00000000000000|0000000000000000|
B|----------------|----------------|----------------|----------------|

  D                                 C#m
  E SSSSSSSSSSSSSS SSSSSSSSSSSSSSSS E SSSSSSSSSSSSSS SSSSSSSSSSSSSSSS
G|----------------|----------------|----------------|----------------|
D|----------------|----------------|----------------|----------------|
A|----------------|----------------|----------------|----------------|
E|----------------|----------------|----------------|----------------|
B|3-33333333333333|3333333333333333|2-22222222222222|2222222222222222|

  F#m                      C#m
  Q   H.          +H       Q   Q   
G|----------------|----------------|
D|----------------|----------------|
A|----------------|----------------|
E|2---------------|----------------|
B|----------------|--------2-------|

Verse
  F#m                               E
  E E E E E E E E  E E E E E E E E  E E E E E E E E  E E E E E E E E
G|----------------|----------------|----------------|----------------|
D|----------------|----------------|----------------|----------------|
A|----------------|----------------|----------------|----------------|
E|2-2-2-2-2-2-2-2-|2-2-2-2-2-2-2-2-|0-0-0-0-0-0-0-0-|0-0-0-0-0-0-0-0-|
B|----------------|----------------|----------------|----------------|

  F#m                               A                E
  E E E E E E E E  E E E E E E E E  E E E E E E E E  E E E E E E E E
G|----------------|----------------|----------------|----------------|
D|----------------|----------------|----------------|----------------|
A|----------------|----------------|----------------|----------------|
E|2-2-2-2-2-2-2-2-|2-2-2-2-2-2-2-2-|5-5-5-5-5-5-5-5-|0-0-0-0-0-0-0-0-|
B|----------------|----------------|----------------|----------------|

  F#m                               E
  E SSSSSSSSSSSSSS SSSSSSSSSSSSSSSS E SSSSSSSSSSSSSS SSSSSSSSSSSSSSSS
G|----------------|----------------|----------------|----------------|
D|----------------|----------------|----------------|----------------|
A|----------------|----------------|----------------|----------------|
E|2-22222222222222|2222222222222222|0-00000000000000|0000000000000000|
B|----------------|----------------|----------------|----------------|

  F#m                               D                C#m
  E SSSSSSSSSSSSSS SSSSSSSSSSSSSSSS SSSSSSSSSSSSSSSS SSSSSSSSSSSSSSSS
G|----------------|----------------|----------------|----------------|
D|----------------|----------------|----------------|----------------|
A|----------------|----------------|5555555555555555|4444444444444444|
E|2-22222222222222|2222222222222222|----------------|----------------|
B|----------------|----------------|----------------|----------------|

Pre-Chorus 1
  D       E        C#m     F#m      D       E        C#m     F#m
  E E E E E E E E  E E E E E E E E  E E E E E E E E  E E E E q   Q
G|----------------|----------------|----------------|----------------|
D|----------------|----------------|----------------|----------------|
A|----------------|----------------|----------------|----------------|
E|----------------|--------2-2-2-2-|----------------|--------2-------|
B|3-3-3-3-5-5-5-5-|2-2-2-2---------|3-3-3-3-5-5-5-5-|2-2-2-2---------|

  D       E        C#m     F#m      D                C#m
  SSSSSSSSSSSSSSSS SSSSSSSSSSSSSSSS SSSSSSSSSSSSSSSS Q   H.
G|----------------|----------------|----------------|----------------|
D|----------------|----------------|----------------|----------------|
A|----------------|----------------|----------------|----------------|
E|----------------|--------22222222|----------------|----------------|
B|3333333355555555|22222222--------|3333333333333333|2---------------|

Chorus
  F#m                               C#m
  E E E E E E E E  E E E E E E E E  E E E E E E E E  E E E E E E E E
G|----------------|----------------|----------------|----------------|
D|----------------|----------------|----------------|----------------|
A|----------------|----------------|4-4-4-4-4-4-4-4-|4-4-4-4-4-4-4-4-|
E|2-2-2-2-2-2-2-2-|2-2-2-2-2-2-2-2-|----------------|----------------|
B|----------------|----------------|----------------|----------------|

  F#m                               C#m
  E E E E E E E E  E E E E E E E E  E E E E E E E E  E E E E E E E E
G|----------------|----------------|----------------|----------------|
D|----------------|----------------|----------------|----------------|
A|----------------|----------------|4-4-4-4-4-4-4-4-|4-4-4-4-4-4-4-4-|
E|2-2-2-2-2-2-2-2-|2-2-2-2-2-2-2-2-|----------------|----------------|
B|----------------|----------------|----------------|----------------|

  D                                 A
  E E E E E E E E  E E E E E E E E  E E E E E E E E  E E E E E E E E
G|----------------|----------------|----------------|----------------|
D|----------------|----------------|----------------|----------------|
A|5-5-5-5-5-5-5-5-|5-5-5-5-5-5-5-5-|0-0-0-0-0-0-0-0-|0-0-0-0-0-0-0-0-|
E|----------------|----------------|----------------|----------------|
B|----------------|----------------|----------------|----------------|

  D                                 E
  E E E E E E E E  E E E E E E E E  E E E E E E E E  E E E E E E E E
G|----------------|----------------|----------------|----------------|
D|----------------|----------------|----------------|----------------|
A|5-5-5-5-5-5-5-5-|5-5-5-5-5-5-5-5-|7-7-7-7-7-7-7-7-|7-7-7-7-7-7-7-7-|
E|----------------|----------------|----------------|----------------|
B|----------------|----------------|----------------|----------------|

Bass Fill 1
  A                  A               C#m
  SSSSSSSSSSSSSSSS   SSSSSSSSq   Q   q   Q
G|----------------| |------------------------|
D|----------------|6|------------------------|
A|0000000000000000|/|000000000-------4-------|
E|----------------|4|------------------------|
B|----------------| |------------------------|

Rhythm Backing
  F#m
  W               +W               +W               +W
G|----------------|----------------|----------------|----------------|\
D|----------------|----------------|----------------|----------------| \
A|----------------|----------------|----------------|----------------|  x4
E|2---------------|----------------|----------------|----------------| /
B|----------------|----------------|----------------|----------------|/

  A                                 B
  Q   E E Q   E E  Q   E E Q   E E  Q   E E Q   E E  Q   E E Q   E E
G|----------------|----------------|----------------|----------------|
D|----------------|----------------|----------------|----------------|
A|0---0-0-0---0-0-|0---0-0-0---0-0-|2---2-2-2---2-2-|2---2-2-2---2-2-|
E|----------------|----------------|----------------|----------------|
B|----------------|----------------|----------------|----------------|

  C#m
  Q   E E Q   E E  Q   E E Q   E E  Q   E E Q   E E  Q   E E Q   E E
G|----------------|----------------|----------------|----------------|
D|----------------|----------------|----------------|----------------|
A|4---4-4-4---4-4-|4---4-4-4---4-4-|4---4-4-4---4-4-|4---4-4-4---4-4-|
E|----------------|----------------|----------------|----------------|
B|----------------|----------------|----------------|----------------|

  A                                 B
  Q   E E Q   E E  Q   E E Q   E E  Q   E E Q   E E  Q   E E Q   E E
G|----------------|----------------|----------------|----------------|
D|----------------|----------------|----------------|----------------|
A|0---0-0-0---0-0-|0---0-0-0---0-0-|2---2-2-2---2-2-|2---2-2-2---2-2-|
E|----------------|----------------|----------------|----------------|
B|----------------|----------------|----------------|----------------|

  C#m
  Q   E E Q   Q    E E Q   Q   E E  Q   E E Q   Q    E E Q   Q   E E
G|----------------|----------------|----------------|----------------|
D|----------------|----------------|----------------|----------------|
A|4---4-4-4---4---|--4-4---4---4-4-|4---4-4-4---4---|--4-4---4---4-4-|
E|----------------|----------------|----------------|----------------|
B|----------------|----------------|----------------|----------------|

Solo Backing
  B                                 E                F#m
  E E E E E E E E  E E E E E E E E  E E E E E E E E  E E E E E E E E
G|----------------|----------------|----------------|----------------|
D|----------------|----------------|----------------|----------------|
A|2-2-2-2-2-2-2-2-|2-2-2-2-2-2-2-2-|----------------|----------------|
E|----------------|----------------|0-0-0-0-0-0-0-0-|2-2-2-2-2-2-2-2-|
B|----------------|----------------|----------------|----------------|

  D                                 A                E
  E E E E E E E E  E E E E E E E E  E E E E E E E E  E E E E E E E E
G|----------------|----------------|----------------|----------------|
D|----------------|----------------|----------------|----------------|
A|5-5-5-5-5-5-5-5-|5-5-5-5-5-5-5-5-|0-0-0-0-0-0-0-0-|----------------|
E|----------------|----------------|----------------|0-0-0-0-0-0-0-0-|
B|----------------|----------------|----------------|----------------|

  B                                 A
  E E E E E E E E  E E E E E E E E  E E E E E E E E  E E E E E E E E
G|----------------|----------------|----------------|----------------|
D|----------------|----------------|----------------|----------------|
A|2-2-2-2-2-2-2-2-|2-2-2-2-2-2-2-2-|0-0-0-0-0-0-0-0-|0-0-0-0-0-0-0-0-|
E|----------------|----------------|----------------|----------------|
B|----------------|----------------|----------------|----------------|

  D                                 A                E
  E E E E E E E E  E E E E E E E E  E E E E E E E E  E E E E E E E E
G|----------------|----------------|----------------|----------------|
D|----------------|----------------|----------------|----------------|
A|5-5-5-5-5-5-5-5-|5-5-5-5-5-5-5-5-|0-0-0-0-0-0-0-0-|----------------|
E|----------------|----------------|----------------|0-0-0-0-0-0-0-0-|
B|----------------|----------------|----------------|----------------|

Pre-Chorus 2

  D       E        C#m     F#m      D       E        C#m     F#m
  E E E E E E E E  E E E E E E E E  E E E E E E E E  E E E E E E E E
G|----------------|----------------|----------------|----------------|
D|----------------|----------------|----------------|----------------|
A|----------------|----------------|----------------|----------------|
E|----------------|--------2-2-2-2-|----------------|--------2-2-2-2-|
B|3-3-3-3-5-5-5-5-|2-2-2-2---------|3-3-3-3-5-5-5-5-|2-2-2-2---------|

  D       E        C#m     F#m      D                C#m
  SSSSSSSSSSSSSSSS SSSSSSSSSSSSSSSS SSSSSSSSSSSSSSSS SSSSSSSSSSSSSSSS
G|----------------|----------------|----------------|----------------|
D|----------------|----------------|----------------|----------------|
A|----------------|----------------|----------------|----------------|
E|----------------|--------22222222|----------------|----------------|
B|3333333355555555|22222222--------|3333333333333333|2222222222222222|

Outro
  A                                             F#m
  SSSSSSSSSSSSSSSS   SSSSSSSSq   Q   q   Q      L
G|----------------| |------------------------| |----------------*||
D|----------------|6|------------------------|4|----------------*||
A|0000000000000000|/|000000000-------0-------|/|----------------*||
E|----------------|4|------------------------|4|2---------------*||
B|----------------| |------------------------| |----------------*||



Song Order:

Intro
Verse
Pre-Chorus 1
Chorus x2
Bass Fill 1
Intro
Verse
Pre-Chorus 1
Chorus x2
Bass Fill 1
Rhythm Backing
Verse
Solo Backing
Pre-Chorus 2
Chorus
Verse
Pre-Chorus 1
Chorus x2
Outro


##########
# Legend #
##########

Q=xxx ------------ Tempo
S ---------------- 16th note
E ---------------- 8th note
Q ---------------- quarter note
H ---------------- half note
W ---------------- whole note
*|| -------------- double bar
. ---------------- dotted note (adds half the note value)
+Z --------------- note is tied to previous note
4/4 -------------- time signature

Any note value with no numbers under it indicates a rest for as long as that
note value. Any note value in lowercase letters indicates a staccato, or
shortened, note.



That is it! I hope you enjoyed learning this song! Like I said above, if you
have any questions or concerns, please feel free to e-mail me. Thanks!

Suggest correction
Give kudos to tab author, rate the tab!
1 2 3 4 5
comments
print report bad tab
guest
You may want to rate the tab now too:
select rating
Wanna post a correction for this tab? Suggest correction