Oops, an error
Loading. Please wait.

Cry Thunder bass

version 1
version 1

Whole song

Interactive

761 views 9 this week
no commentswrite comment
1 2 3 4 5
3 more votes to show rating
add to favorites
×
Save as Personal and add changes to this tab that will be seen only by you. Learn more ›
×
You can save this tab as Personal to edit and correct it or add notes. All changes will be seen only by you. Learn more »
launch autoscroll
font size
0
reset
guitar tuner
backing track
0:00
0:00
edit
Autoscroll
slow
fast
+/-
esc
set tempo
stop
Author
Difficulty
Tuning: Drop D

Not the best but feel free to add/remove or change it around.

 Intro Start:
G|---------|----------|----------|-----|
D|---------|----------|----------|-----|
A|-4-------|--7-------|-------7--|-----|
E|------5--|-------7--|--5-------|--7--|

G|-----------13--------14--------11-13-14-|--13-----------11-13-9----------9-11-|
D|-14-11-11-----11-11-----11-11-----------|-----11-11-14-----------9-9--13------|
A|----------------------------------------|-------------------------------------|
E|----------------------------------------|-------------------------------------|

G|-6------9-------------9-----|--------------------------|
D|---7-7----7-7--9------------|-9-7--6-7-6---6-------6-7-|
A|-----------------7-7----7-7-|------------9---9-7-9-----|
E|----------------------------|--------------------------|


G|-------------------------|-------------------------|-------------------------|
D|-------------------------|-------------------------|-------------------------|
A|-4-444-4-4-4-4-444-4-----|-4-444-4-4-4-2-222-2-----|-4-444-4-4-4-4-444-4-4-4-|
E|---------------------5-7-|---------------------4-7-|-------------------------|

G|------------------|
D|------------------|
A|------------------|  x2
E|-5-5-5-5--7-7-7-7-|

G|--------------------------|------------------------------------|
D|---------------------4--6-|-9-11-11-11-11-11-11-11-11-11-11-11-|
A|-4-444-4-4-4-4-444-4------|------------------------------------|
E|--------------------------|------------------------------------|  Intro End

 Verse 1 Start:
G|-------------------------------------------------------------------------------|
D|-------------------------------------------------------------------------------|
A|-4--4--4-4-4--4--4-4-4--4--4-4-4--4--4-4-4--4--4-4-------7---7---7-7-----------|
E|---------------------------------------------------5---5-------------7--7--5-7-|

G|------------------------------------------------------------------------------------|
D|-----------------------------------------------------------------------9-7-6-7-6-4--|
A|-4--4--4-4-4--4--4-4-4--4--4-4-4--4--4-4-4--4--4-4-----------7--7--7-7--------------|
E|---------------------------------------------------5--5--5-5------------------------|

G|-------------------------|-------------------------|-------------------------|
D|-------------------------|-------------------------|-------------------------|
A|-4-444-4-4-4-4-444-4-----|-4-444-4-4-4-2-222-2-----|-4-444-4-4-4-4-444-4-4-4-|
E|---------------------5-7-|---------------------4-7-|-------------------------|

G|------------------|
D|------------------|
A|------------------|
E|-5-5-5-5--7-7-7-7-| Verse 1 End

 Verse 2
G|-------------------------------------------------------------------------------|
D|-------------------------------------------------------------------------------|
A|-4--4--4-4-4--4--4-4-4--4--4-4-4--4--4-4-4--4--4-4-------7---7---7-7-----------|
E|---------------------------------------------------5---5-------------7--7--5-7-|

G|-----------------------|     |-----------------------------------------|
D|-----------------------|     |-----------------------------------------|
A|-4--4----2-4--4--4-4-4-| x2  |-4--4--4-4-----------7--7--7-7---------7-|
E|-------4---------------|     |-----------5--5--5-5-----------7--7--7---| Verse 2 End

 Pre Chorus:
G|--------------------|----------------------|--------------------|---------------------|
D|--------------------|----------------------|--------------------|---------------------|
A|--------------------|----------------------|7---7-7-7-7---7-7-6-|-4---4-4-4-4---4-----|
E|-5-5-5-5-5-5-5--5---|7-7-7-7-7-7-7-4-5-7---|--------------------|-----------------2-0-|

G|---------------------|---------------------|-----------------------|--------------|
D|---------------------|---------------------|-----------------------|--------------|
A|---------------------|-2---2-2-2-2---2-2-2-|-----------------------|--------------|
E|-2---2-2-2-2---2-3-5-|---------------------|-5---5-5-5-5-5-5-5-5-5-|7-7-7-7-7-7-7-| Pre Chorus End

 Chorus:
G|-----------------|---------------------|--------------------|----------------|
D|-----------------|---------------------|--------------------|----------------|
A|----4---4-4-4-4--|-7---7-7-7-7---7-7-7-|4---7-6-4-----------|7---7-6-4-------|
E|-----------------|---------------------|----------5---5-5-5-|----------7-5-7-|

G|----------------|----------------------|--------------------|--------------------|
D|----------------|----------------------|--------------------|--------------------|
A|-4--4---4-4-4-4-|--7---7-7-7-7---7-7-7-|--------------------|----------4---4-4-4-|
E|----------------|----------------------|5---5-5-5-7---7-7-7-|7---7-7-7-----------|

G|-------------------------|-------------------------|-------------------------|------------------|
D|-------------------------|-------------------------|-------------------------|------------------|
A|-4-444-4-4-4-4-444-4-----|-4-444-4-4-4-2-222-2-----|-4-444-4-4-4-4-444-4-4-4-|------------------|  x2
E|---------------------5-7-|---------------------4-7-|-------------------------|-5-5-5-5--7-7-7-7-| Chorus End

Verse 3 (Same as verse 2)
Pre Chorus (Same except last bar of 7s changed to)
G|--------------|
D|--------------|
A|--------------|
E|-7--7--7--7---|

Chorus 2:
G|-----------------|---------------------|--------------------|----------------|
D|-----------------|---------------------|--------------------|----------------|
A|----4---4-4-4-4--|-7---7-7-7-7---7-7-7-|4---7-6-4-----------|7---7-6-4-------|
E|-----------------|---------------------|----------5---5-5-5-|----------7-5-7-|

G|----------------|----------------------|--------------------|--------------------|---------|-------|
D|----------------|----------------------|--------------------|--------------------|---------|-------|
A|-4--4---4-4-4-4-|--7---7-7-7-7---7-7-7-|--------------------|----------4---4-4-4-|---------|-----9-|
E|----------------|----------------------|5---5-5-5-7---7-7-7-|7---7-7-7-----------|-5---7---|-7-----|

G|------------------|------------------|------------------|------------------|
D|------------------|------------------|------------------|------------------|
A|-4-4-4-4-4-4-4--4-|-4-4-4-4-4-4-4--2-|-4-4-4-4--4-4-4-4-|-4-4-4-4-4-4-4--2-|
E|------------------|------------------|------------------|------------------| Chorus 2 End

 Herman Solo
G|-------------------|    |---------------------|----------------------|
D|-------------------|    |---------------------|----------------------|
A|-------------------| x2 |---------------------|------------4---4-----|
E|-6---6-6-6---6-6-6-|    |-6---6-6-4-2---2-2-2-|2---2-2-2-2---2---2-4-|

G|-----------------------|-------------------|--------------------|----------------------|
D|-----------------------|-----------------6-|8---8-8-8-8---8-6-8-|9---9----9-11---4-3-6-|
A|-6---6-6-6---6-6-6-6---|6---6-6-6-6--6-6---|--------------------|------11--------------|
E|-----------------------|-------------------|--------------------|----------------------| Herman Solo End

 Sam Solo
G|---------------------|    |--------------------|----------------|----------------------|
D|---------------------|    |--------------------|----------------|----------------------|
A|---------------------| x2 |--------------------|----------------|----------------------|
E|-6---6-6-6-6---6-2-4-|    |6---6-6-6-2---2-2-2-|2---2-2-2-2---4-|--6---6-6-6-6---6-2-4-|

G|---------------------|--------------------|-----------------------|
D|---------------------|--------------------|-----------------------|
A|---------------------|8---8-8-8-8---8-8-8-|9---9-9-9-11---11-11-9-|
E|-6---6-6-6-6---6-6-6-|--------------------|-----------------------| Sam Solo End

 Herman Again
G|---------------------|--------------------|--------------------|------------------|
D|---------------------|--------------------|--------------------|------------------|
A|-4---4-4-4-4---4-4---|4---4-4-4-4---4-4-4-|--------------------|------------------|
E|-------------------5-|--------------------|5---5-5-5-5---5-5-5-|5---5-5-5-5---7---|

G|---------------------|---------------------|--------------------|------------------|
D|---------------------|---------------6-----|--------------------|------------------|
A|-4---4-4-4-4---4-4-4-|4---4-4-4-4--4---4-4-|--------------------|------------------|
E|---------------------|---------------------|5---5-5-5-5---5-5-5-|5---5---5---4-5-7-| Herman Again End

 Herman and Sam
G|-------------------|----------------|----------------|-------------------------|
D|-------------------|----------------|----------------|-------------------------|
A|-7-----7-9---9---7-|--6---7-------7-|--2---2-2-4---2-|--2-----------2----------|
E|-----7-------------|----------9-----|----------------|------5-4-2-4---2-4--4-5-|

G|------------------------|    |-----------------------------------|-----------------------------|
D|------------------------|    |-----------------------------------|-----------------------------|
A|2-4-4-4-4-4-2-4-4-4-4-4-| x2 |-9-11-11-11-11-11-9-11-11-11-11-11-|-12---12-12-12-14---14-14-14-|
E|------------------------|    |-----------------------------------|-----------------------------|

G|----------------|
D|-----------9-11-|
A|------9-11------|  Rest for a bit 
E|-9--------------|

G|-------------------|--------------------|-------------------|--------------------|
D|-------------------|--------------------|-------------------|--------------------|
A|-------------------|--------------------|-4-4-4-4-4-4-4---4-|--4-4-4-4-4-4-4---4-|
E|-5-5-5-5-5-5-5---5-|--5-5-5-5-5-5-5---7-|-------------------|--------------------|

G|-------------------|--------------------|--------------------|--------------------|
D|-------------------|--------------------|--------------------|--------------------|
A|-------------------|--7-7-7-7-7-7-7---7-|--------------------|--------------------|
E|-5-5-5-5-5-5-5---5 |--------------------|--7---7-7-7-7-7-7-7-|7--7--7--7--7--7--7-| Herman and Sam End

 Chorus 3:
G|-----------------|---------------------|--------------------|----------------|
D|-----------------|---------------------|--------------------|----------------|
A|----4---4-4-4-4--|-7---7-7-7-7---7-7-7-|4---7-6-4-----------|7---7-6-4-------|
E|-----------------|---------------------|----------5---5-5-5-|----------7-5-7-|

G|----------------|----------------------|--------------------|--------------------|
D|----------------|----------------------|--------------------|--------------------|
A|-4--4---4-4-4-4-|--7---7-7-7-7---7-7-7-|--------------------|--------------------|
E|----------------|----------------------|5---5-5-5-7---7-7-7-|5---5-5-5-7---7-5-7-|

G|-----------------|--------------------|--------------------|--------------------|
D|-----------------|--------------------|--------------------|--------------------|
A|-4---4---4-4-4-4-|7---7-7-7-7---7-7-7-|4---7-6-4-----------|7---7-6-4-----------|
E|-----------------|--------------------|----------5---5-5-5-|----------7---7-5-7-|

G|-----------------|--------------------|--------------------|--------------------|
D|-----------------|--------------------|--------------------|--------------------|
A|-4---4---4-4-4-4-|7---7-7-7-7---7-7-7-|--------------------|----------4---4-4-4-|
E|-----------------|--------------------|5---5-5-5-7---7-7-7-|7---7-7-7-----------|

G|-----------|------|
D|-----------|------|
A|-----------|------|
E|-5----7----|-7----| Let it ring out

G|------------------------|
D|------------------------|
A|-4-(x24)--4---4---2-2-4-|
E|------------------------|

===============================================================================

            
            
Suggest correction
Creating personal tab
Creating personal tab
You can edit any tab online and save it as your Personal.

You can edit, replace or remove any tab part or add personal notes – all changes will be seen only by you.

Personal tabs can be accessed anytime from any device, even offline.
Learn more »
Give kudos to tab author, rate the tab!
1 2 3 4 5
comments
print report bad tab
guest
You may want to rate the tab now too:
select rating
Wanna post a correction for this tab? Suggest correction