Oops, an error
Loading. Please wait.

Once In A Lifetime bass

version 1
version 1

Whole song

Interactive

1,316 views 1 this week
no commentswrite comment
1 2 3 4 5
2 more votes to show rating
add to favorites
×
Save as Personal and add changes to this tab that will be seen only by you. Learn more ›
×
You can save this tab as Personal to edit and correct it or add notes. All changes will be seen only by you. Learn more »
launch autoscroll
font size
0
reset
guitar tuner
edit
Autoscroll
slow
fast
+/-
esc
set tempo
stop
G  :----------------|----------------|----------------|----------------|
D  :----------------|----------------|----------------|----------------|
A  :7---*-----------|----------------|7---------------|----------------|
E  :----------------|----------------|----------------|--------7-------|

                                                                       
G  :----------------|----------------|----------------|----------------|
D  :----------------|----------------|----------------|----------------|
A  :7---------------|----------------|7---*-----------|----------------|
E  :----------------|----------------|----------------|--------4-------|

                                                                       
G  :----------------|----------------|----------------|----------------|
D  :----------------|----------------|----------------|----------------|
A  :0---------------|----------------|0---*-----------|----------------|
E  :----------------|----------------|----------------|----------------|

                                                                       
G  :----------------|----------------|----------------|----------------|
D  :----------------|----------------|----------------|----------------|
A  :7---------------|----------------|7---*-----------|--------7-------|
E  :----------------|----------------|----------------|----------------|

                                                                       
G  :----------------|----------------|----------------|----------------|
D  :----------------|----------------|----------------|----------------|
A  :0---------------|----------------|0---*---0---*---|0---0---0---0---|
E  :----------------|----------------|----------------|----------------|

                                                      
G  :----------------|----------------|----------------|
D  :----------------|----------------|----------------|
A  :----------------|--------7---*---|2---------------|
E  :2---*---4---*---|5---*-----------|----------------|

                                      
G  :----------------------------------|
D  :----------------------------------|
A  :14-14-14-14-14-*-14-14-14-14-14-*-|
E  :----------------------------------|

                                                                 
G  :-----------------------------|-------------------------------|
D  :-----------------------------|-------------------------------|
A  :7-7-7-7-7-7-7-7-7-7-7-7-7-7-7|7-7-7-7-7-7-7-7-7-7-7-7-7-7-7-7|
E  :-----------------------------|-------------------------------|

                                                                 
G  :-----------------------------|-------------------------------|
D  :-----------------------------|-------------------------------|
A  :7-7-7-7-7-7-7-7-7-7-7-7-7-7-7|7-7-7-7-7-7-7-7-7-7-7-7-7-7-7-7|
E  :-----------------------------|-------------------------------|

                                                                 
G  :-----------------------------|-------------------------------|
D  :-----------------------------|-------------------------------|
A  :4-4-4-4-4-4-4-4-4-4-4-4-4-4-4|4-4-4-4-4-4-4-4-4-4-4-4-4-4-4-4|
E  :-----------------------------|-------------------------------|

                                                                 
G  :-----------------------------|-------------------------------|
D  :-----------------------------|-------------------------------|
A  :2-2-2-2-2-2-2-2-2-2-2-2-2-2-2|2-2-2-2-2-2-2-2-2-2-2-2-2-2-2-2|
E  :-----------------------------|-------------------------------|

                                                                 
G  :-----------------------------|-------------------------------|
D  :-----------------------------|-------------------------------|
A  :7-7-7-7-7-7-7-7-7-7-7-7-7-7-7|7-7-7-7-7-7-7-7-7-7-7-7-7-7-7-7|
E  :-----------------------------|-------------------------------|

                                                                 
G  :-----------------------------|-------------------------------|
D  :-----------------------------|-------------------------------|
A  :0-0-0-0-0-0-0-0-0-0-0-0-0-0-0|0-0-0-0-0-0-0-0-0-0-0-0-0-0-0-0|
E  :-----------------------------|-------------------------------|

                                                                 
G  :-----------------------------|-------------------------------|
D  :-----------------------------|-------------------------------|
A  :4-4-4-4-4-4-4-4-4-4-4-4-4-4-4|4-4-4-4-4-4-4-4-4-4-4-4-4-4-4-4|
E  :-----------------------------|-------------------------------|

                                                                 
G  :-----------------------------|-------------------------------|
D  :-----------------------------|-------------------------------|
A  :2-2-2-2-2-2-2-2-2-2-2-2-2-2-2|2-2-2-2-2-2-2-2-2-2-2-2-2-2-2-2|
E  :-----------------------------|-------------------------------|

                                                                 
G  :-----------------------------|-------------------------------|
D  :-----------------------------|-------------------------------|
A  :7-7-7-7-7-7-7-7-7-7-7-7-7-7-7|7-7-7-7-7-7-7-7-7-7-7-7-7-7-7-7|
E  :-----------------------------|-------------------------------|

                                                                 
G  :-----------------------------|-------------------------------|
D  :-----------------------------|-------------------------------|
A  :7-7-7-7-7-7-7-7-7-7-7-7-7-7-7|7-7-7-7-7-7-7-7-7-7-7-7-7-7-7-7|
E  :-----------------------------|-------------------------------|

                                                                 
G  :-----------------------------|-------------------------------|
D  :-----------------------------|-------------------------------|
A  :4-4-4-4-4-4-4-4-4-4-4-4-4-4-4|4-4-4-4-4-4-4-4-4-4-4-4-4-4-4-4|
E  :-----------------------------|-------------------------------|

                                                                 
G  :-----------------------------|-------------------------------|
D  :-----------------------------|-------------------------------|
A  :2-2-2-2-2-2-2-2-2-2-2-2-2-2-2|2-2-2-2-2-2-2-2-2-2-2-2-2-2-2-2|
E  :-----------------------------|-------------------------------|

                                                                 
G  :-----------------------------|-------------------------------|
D  :-----------------------------|-------------------------------|
A  :7-7-7-7-7-7-7-7-7-7-7-7-7-7-7|7-7-7-7-7-7-7-7-7-7-7-7-7-7-7-7|
E  :-----------------------------|-------------------------------|

                                                                 
G  :-----------------------------|-------------------------------|
D  :-----------------------------|-------------------------------|
A  :0-0-0-0-0-0-0-0-0-0-0-0-0-0-0|0-0-0-0-0-0-0-0-0-0-0-0-0-0-0-0|
E  :-----------------------------|-------------------------------|

                                                                 
G  :-----------------------------|-------------------------------|
D  :-----------------------------|-------------------------------|
A  :4-4-4-4-4-4-4-4-4-4-4-4-4-4-4|4-4-4-4-4-4-4-4-4-4-4-4-4-4-4-4|
E  :-----------------------------|-------------------------------|

                                                                 
G  :-----------------------------|-------------------------------|
D  :-----------------------------|-------------------------------|
A  :2-2-2-2-2-2-2-2-2-2-2-2-2-2-2|2-2-2-2-2-2-2-2-2-2-2-2-2-2-2-2|
E  :-----------------------------|-------------------------------|

                                     
G  :----------------|----------------|
D  :----------------|----------------|
A  :0-0-0-0-0-0-0-0-|0-------0---2---|
E  :----------------|----2-----------|

                                                                   
G  :----------------|----------------|-----------------------------|
D  :----------------|----------------|-----------------------------|
A  :7-7-7-7-7-7-7-7-|2-2-2-2-2-2-2-2-|4-4-4-4-4-4-4-4-4-4-4-4-4-4-4|
E  :----------------|----------------|-----------------------------|

                                                               
G  :-------------------------|----------------|----------------|
D  :-------------------------|----------------|----------------|
A  :0-0-0-0-0-0-0-0-0-0-0-0-0|7-7-7-7-7-7-7-7-|2-2-2-2-2-2-2-2-|
E  :-------------------------|----------------|----------------|

                                                           
G  :---------------------------|---------------------------|
D  :---------------------------|---------------------------|
A  :0-0-0-0-0-0-0-0-0-0-0-0-0-0|0-0-0-0-0-0-0-0-0-0-0-0-0-0|
E  :---------------------------|---------------------------|

                                                                   
G  :----------------|----------------|-----------------------------|
D  :----------------|----------------|-----------------------------|
A  :7-7-7-7-7-7-7-7-|2-2-2-2-2-2-2-2-|4-4-4-4-4-4-4-4-4-4-4-4-4-4-4|
E  :----------------|----------------|-----------------------------|

                                                               
G  :-------------------------|----------------|----------------|
D  :-------------------------|----------------|----------------|
A  :0-0-0-0-0-0-0-0-0-0-0-0-0|7-7-7-7-7-7-7-7-|0-0-0-0-0-0-0-0-|
E  :-------------------------|----------------|----------------|

                                     
G  :----------------|----------------|
D  :----------------|----------------|
A  :2-2-2-2-2-2-2-2-|2-2-2-2-2-2-2-2-|
E  :----------------|----------------|

                                                                   
G  :----------------|----------------|-----------------------------|
D  :----------------|----------------|-----------------------------|
A  :0-0-0-0-0-0-0-0-|0-0-0-0-0-0-0-0-|7-7-7-7-7-7-7-7-7-7-7-7-7-7-7|
E  :----------------|----------------|-----------------------------|

                                                               
G  :-------------------------|----------------|----------------|
D  :-------------------------|----------------|----------------|
A  :7-7-7-7-7-7-7-7-7-7-7-7-7|0-0-0-0-0-0-0-0-|0-0-0-0-0-0-0-0-|
E  :-------------------------|----------------|----------------|

                                                                       
G  :----------------|----------------|----------------|----------------|
D  :----------------|----------------|----------------|----------------|
A  :4-4-4-4-4-4-4-4-|2-2-2-2-2-2-2-2-|0-0-0-0-0-0-0-0-|0-0-0-0-0-0-0-0-|
E  :----------------|----------------|----------------|----------------|

                                                           
G  :-----------------------------|-------------------------|
D  :-----------------------------|-------------------------|
A  :7-7-7-7-7-7-7-7-7-7-7-7-7-7-7|7-7-7-7-7-7-7-7-7-7-7-7-7|
E  :-----------------------------|-------------------------|

                                                                       
G  :----------------|----------------|----------------|----------------|
D  :----------------|----------------|----------------|----------------|
A  :0-0-0-0-0-0-0-0-|0-0-0-0-0-0-0-0-|----------------|----------------|
E  :----------------|----------------|4-4-4-4-4-4-4-4-|4-4-4-4-4-4-4-4-|

                                                                       
G  :----------------|----------------|----------------|----------------|
D  :----------------|----------------|----------------|----------------|
A  :4-4-4-4-4-4-4-4-|4-4-4-4-4-4-4-4-|0-0-0-0-0-0-0-0-|0-0-0-0-0-0-0-0-|
E  :----------------|----------------|----------------|----------------|

                                                                       
G  :----------------|----------------|----------------|----------------|
D  :----------------|----------------|----------------|----------------|
A  :4-4-4-4-4-4-4-4-|4-4-4-4-4-4-4-4-|7-7-7-7-7-7-7-7-|----------------|
E  :----------------|----------------|----------------|7-7-7-7-7-7-7-7-|

                                                                       
G  :----------------|----------------|----------------|----------------|
D  :----------------|----------------|----------------|----------------|
A  :4-4-4-4-4-4-4-4-|4-4-4-4-4-4-4-4-|0-0-0-0-0-0-0-0-|0-0-0-0-0-0-0-0-|
E  :----------------|----------------|----------------|----------------|

                                                                       
G  :----------------|----------------|----------------|----------------|
D  :----------------|----------------|----------------|----------------|
A  :4-4-4-4-4-4-4-4-|4-4-4-4-4-4-4-4-|7-7-7-7-7-7-7-7-|----6---9---*---|
E  :----------------|----------------|----------------|7---------------|

                                                                       
G  :----------------|----------------|----------------|----------------|
D  :----------------|----------------|----------------|----------------|
A  :----------------|----------------|4-4-4-4-4-4-4-4-|4-4-4-4-4-4-4-4-|
E  :2-2-2-2-2-2-2-2-|2-2-2-2-2-2-2-2-|----------------|----------------|

                                                                       
G  :----------------|----------------|----------------|----------------|
D  :----------------|----------------|----------------|----------------|
A  :2-2-2-2-2-2-2-2-|4-4-4-4-4-4-4-4-|----------------|----------------|
E  :----------------|----------------|2-2-2-2-2-2-2-2-|2-2-2-2-2-2-2-2-|

                                                                       
G  :----------------|----------------|----------------|----------------|
D  :----------------|----------------|----------------|----------------|
A  :----------------|4-4-4-4-4-4-4-4-|6-6-6-6-6-6-6-6-|2-2-2-2-2-2-2-2-|
E  :2-2-2-2-2-2-2-2-|----------------|----------------|----------------|

                                                                       
G  :----------------|----------------|----------------|----------------|
D  :----------------|----------------|----------------|----------------|
A  :2-2-2-2-2-2-2-2-|4-4-4-4-4-4-4-4-|----------------|----------------|
E  :----------------|----------------|2-2-2-2-2-2-2-2-|2---2---2---1---|

                                                            
G  :------------------|------------------|------------------|
D  :------------------|------------------|------------------|
A  :7---7-7-7-7-7-7-7-|--7-7-7-7-7-7-7-2-|--2-2-2-2-2-2-2-2-|
E  :------------------|------------------|------------------|

                                                        
G  :------------------|----------------|----------------|
D  :------------------|----------------|----------------|
A  :--2-2-2-2-2-2-2-0-|--------------2-|----------------|
E  :------------------|----------------|----------------|

                                                                   
G  :-----------------------|--------------------|------------------|
D  :-----------------------|--------------------|------------------|
A  :4-4-4-4-4-4-4-4-4-4-4-4|4-4-4-4-4-4-4-4-4-4-|--4-4-4-4-4-4-4-4-|
E  :-----------------------|--------------------|------------------|

                                                            
G  :------------------|------------------|------------------|
D  :------------------|------------------|------------------|
A  :--4-4-4-4-4-4-4-2-|--2-2-2-2-2-2-2-2-|--2-2-2-2-2-2-2-0-|
E  :------------------|------------------|------------------|

                                                                       
G  :----------------|----------------|----------------|----------------|
D  :----------------|----------------|----------------|----------------|
A  :--------------2-|--------------0-|----------------|2---0---2---4---|
E  :----------------|----------------|----------------|----------------|

                                                                   
G  :----------------|----------------|-----------------------------|
D  :----------------|----------------|-----------------------------|
A  :7-7-7-7-7-7-7-7-|2-2-2-2-2-2-2-2-|4-4-4-4-4-4-4-4-4-4-4-4-4-4-4|
E  :----------------|----------------|-----------------------------|

                                                               
G  :-------------------------|----------------|----------------|
D  :-------------------------|----------------|----------------|
A  :0-0-0-0-0-0-0-0-0-0-0-0-0|7-7-7-7-7-7-7-7-|2-2-2-2-2-2-2-2-|
E  :-------------------------|----------------|----------------|

                                                           
G  :---------------------------|---------------------------|
D  :---------------------------|---------------------------|
A  :0-0-0-0-0-0-0-0-0-0-0-0-0-0|0-0-0-0-0-0-0-0-0-0-0-0-0-0|
E  :---------------------------|---------------------------|

                                                                   
G  :----------------|----------------|-----------------------------|
D  :----------------|----------------|-----------------------------|
A  :7-7-7-7-7-7-7-7-|2-2-2-2-2-2-2-2-|4-4-4-4-4-4-4-4-4-4-4-4-4-4-4|
E  :----------------|----------------|-----------------------------|

                                                               
G  :-------------------------|----------------|----------------|
D  :-------------------------|----------------|----------------|
A  :0-0-0-0-0-0-0-0-0-0-0-0-0|7-7-7-7-7-7-7-7-|0-0-0-0-0-0-0-0-|
E  :-------------------------|----------------|----------------|

                                     
G  :----------------|----------------|
D  :----------------|----------------|
A  :2-2-2-2-2-2-2-2-|2-2-2-2-2-2-2-2-|
E  :----------------|----------------|

                                                                   
G  :----------------|----------------|-----------------------------|
D  :----------------|----------------|-----------------------------|
A  :0-0-0-0-0-0-0-0-|0-0-0-0-0-0-0-0-|7-7-7-7-7-7-7-7-7-7-7-7-7-7-7|
E  :----------------|----------------|-----------------------------|

                                                               
G  :-------------------------|----------------|----------------|
D  :-------------------------|----------------|----------------|
A  :7-7-7-7-7-7-7-7-7-7-7-7-7|0-0-0-0-0-0-0-0-|0-0-0-0-0-0-0-0-|
E  :-------------------------|----------------|----------------|

                                                                       
G  :----------------|----------------|----------------|----------------|
D  :----------------|----------------|----------------|----------------|
A  :4-4-4-4-4-4-4-4-|2-2-2-2-2-2-2-2-|0-0-0-0-0-0-0-0-|0-0-0-0-0-0-0-0-|
E  :----------------|----------------|----------------|----------------|

                                                           
G  :-----------------------------|-------------------------|
D  :-----------------------------|-------------------------|
A  :7-7-7-7-7-7-7-7-7-7-7-7-7-7-7|7-7-7-7-7-7-7-7-7-7-7-7-7|
E  :-----------------------------|-------------------------|

                                                                       
G  :----------------|----------------|----------------|----------------|
D  :----------------|----------------|----------------|----------------|
A  :0-0-0-0-0-0-0-0-|0-0-0-0-0-0-0-0-|----------------|7-6-4---4-6-4---|
E  :----------------|----------------|4-4-4-4-4-4-4-4-|------7-------7-|

                                                                       
G  :----------------|----------------|----------------|----------------|
D  :----------------|----------------|----------------|----------------|
A  :4-4-4-4-4-4-4-4-|4-4-4-4-4-4-4-4-|0-0-0-0-0-0-0-0-|0-0-0-0-0-0-0-0-|
E  :----------------|----------------|----------------|----------------|

                                                                       
G  :----------------|----------------|----------------|----------------|
D  :----------------|----------------|----------------|----------------|
A  :4-4-4-4-4-4-4-4-|4-4-4-4-4-4-4-4-|7-7-7-7-7-7-7-7-|----------------|
E  :----------------|----------------|----------------|7-7-7-7-7-7-7-7-|

                                                                       
G  :----------------|----------------|----------------|----------------|
D  :----------------|----------------|----------------|----------------|
A  :4-4-4-4-4-4-4-4-|4-4-4-4-4-4-4-4-|0-0-0-0-0-0-0-0-|0-0-0-0-0-0-0-0-|
E  :----------------|----------------|----------------|----------------|

                                                                       
G  :----------------|----------------|----------------|----------------|
D  :----------------|----------------|----------------|----------------|
A  :4-4-4-4-4-4-4-4-|4-4-4-4-4-4-4-4-|7-7-7-7-7-7-7-7-|----6---9---*---|
E  :----------------|----------------|----------------|7---------------|

                                                                       
G  :----------------|----------------|----------------|----------------|
D  :----------------|----------------|----------------|----------------|
A  :----------------|----------------|4-4-4-4-4-4-4-4-|4-4-4-4-4-4-4-4-|
E  :2-2-2-2-2-2-2-2-|2-2-2-2-2-2-2-2-|----------------|----------------|

                                                                       
G  :----------------|----------------|----------------|----------------|
D  :----------------|----------------|----------------|----------------|
A  :2-2-2-2-2-2-2-2-|4-4-4-4-4-4-4-4-|----------------|----------------|
E  :----------------|----------------|2-2-2-2-2-2-2-2-|2-2-2-2-2-2-2-2-|

                                                                       
G  :----------------|----------------|----------------|----------------|
D  :----------------|----------------|----------------|----------------|
A  :----------------|4-4-4-4-4-4-4-4-|6-6-6-6-6-6-6-6-|2-2-2-2-2-2-2-2-|
E  :2-2-2-2-2-2-2-2-|----------------|----------------|----------------|

                                                                       
G  :----------------|----------------|----------------|----------------|
D  :----------------|----------------|----------------|----------------|
A  :2-2-2-2-2-2-2-2-|4-4-4-4-4-4-4-4-|----------------|----------------|
E  :----------------|----------------|2-2-2-2-2-2-2-2-|2---2---2---1---|

                                                            
G  :------------------|------------------|------------------|
D  :------------------|------------------|------------------|
A  :6---6-6-6-6-6-6-6-|--6-6-6-6-6-6-6-4-|--4-4-4-4-4-4-4-4-|
E  :------------------|------------------|------------------|

                                                        
G  :------------------|----------------|----------------|
D  :------------------|----------------|----------------|
A  :--4-4-4-4-4-4-4-2-|--------------4-|----------------|
E  :------------------|----------------|----------------|

                                                                   
G  :-----------------------|--------------------|------------------|
D  :-----------------------|--------------------|------------------|
A  :6-6-6-6-6-6-6-6-6-6-6-6|6-6-6-6-6-6-6-6-6-6-|--6-6-6-6-6-6-6-6-|
E  :-----------------------|--------------------|------------------|

                                                            
G  :------------------|------------------|------------------|
D  :------------------|------------------|------------------|
A  :--6-6-6-6-6-6-6-4-|--4-4-4-4-4-4-4-4-|--4-4-4-4-4-4-4-2-|
E  :------------------|------------------|------------------|

                                                                       
G  :----------------|----------------|----------------|----------------|
D  :----------------|----------------|----------------|----------------|
A  :--------------4-|--------------2-|----------------|4---------------|
E  :----------------|----------------|----------------|----------------|

                                                                       
G  :----------------|----------------|----------------|----------------|
D  :----------------|----------------|----------------|----------------|
A  :7---*-----------|7---*---5-------|7---*-----------|7---*---5-------|
E  :----------------|----------------|----------------|----------------|

                                                                       
G  :----------------|----------------|----------------|----------------|
D  :----------------|----------------|----------------|----------------|
A  :7---*-----------|7---*---5-------|7---*-----------|7---*---5-------|
E  :----------------|----------------|----------------|----------------|

                                                    
G  :-------------------------|----------------------|
D  :-------------------------|----------------------|
A  :7-7-7-7-7-7-7-7-7-7-7-7-7|7-7-7-7-7-7-7-5-------|
E  :-------------------------|----------------------|

                                                    
G  :-------------------------|----------------------|
D  :-------------------------|----------------------|
A  :7-7-7-7-7-7-7-7-7-7-7-7-7|7-7-7-7-7-7-7-5-------|
E  :-------------------------|----------------------|

                                                    
G  :-------------------------|----------------------|
D  :-------------------------|----------------------|
A  :7-7-7-7-7-7-7-7-7-7-7-7-7|7-7-7-7-7-7-7-5-------|
E  :-------------------------|----------------------|

                                                    
G  :-------------------------|----------------------|
D  :-------------------------|----------------------|
A  :7-7-7-7-7-7-7-7-7-7-7-7-7|7-7-7-7-7-7-7-5-------|
E  :-------------------------|----------------------|

                                                                        
G  :----------------------|----------------------|----------------------|
D  :----------------------|----------------------|----------------------|
A  :7-7-7-7-7-7-7-5-------|7-7-7-7-7-7-7-5-------|7-7-7-7-7-7-7-5-------|
E  :----------------------|----------------------|----------------------|

                    
G  :----------------|
D  :----------------|
A  :2-*-2-*-2-*-2-*-|
E  :----------------|

                                                                       
G  :------------------|------------------|-----------------------------|
D  :------------------|------------------|-----------------------------|
A  :4-4-4-4-4---------|4-4-4-4-4---------|4-4-4-4-4-4-4-4-4-4-4-4-4-4-4|
E  :------------------|------------------|-----------------------------|

                                                            
G  :------------------|------------------|------------------|
D  :------------------|------------------|------------------|
A  :4-4-4-4-4---------|0-0-0-0-0---------|0-0-0-0-0---------|
E  :------------------|------------------|------------------|

                                                                     
G  :-----------------------------|----------------|------------------|
D  :-----------------------------|----------------|------------------|
A  :-----------------------------|0-------2-------|4-4-4-4-4---------|
E  :4-4-4-4-4-4-4-4-4-4-4-4-4-4-4|----------------|------------------|

                                                                       
G  :------------------|-----------------------------|------------------|
D  :------------------|-----------------------------|------------------|
A  :4-4-4-4-4---------|4-4-4-4-4-4-4-4-4-4-4-4-4-4-4|4-4-4-4-4---------|
E  :------------------|-----------------------------|------------------|

                                                                       
G  :------------------|------------------|-----------------------------|
D  :------------------|------------------|-----------------------------|
A  :0-0-0-0-0---------|0-0-0-0-0---------|-----------------------------|
E  :------------------|------------------|4-4-4-4-4-4-4-4-4-4-4-4-4-4-4|

                    
G  :----------------|
D  :----------------|
A  :0-------2-------|
E  :----------------|

                                                                       
G  :----------------|----------------|----------------|----------------|
D  :----------------|----------------|----------------|----------------|
A  :0-0-0-0-0-0-0-0-|2-2-2-2-2-2-2-2-|2-2-2-2-2-2-2-2-|4-4-4-4-4-4-4-4-|
E  :----------------|----------------|----------------|----------------|

                                                                   
G  :----------------|----------------|-----------------------------|
D  :----------------|----------------|-----------------------------|
A  :0-0-0-0-0-0-0-0-|2-2-2-2-2-2-2-2-|4-4-4-4-4-4-4-4-4-4-4-4-4-4-4|
E  :----------------|----------------|-----------------------------|

                                                                
G  :--------------------------|----------------|----------------|
D  :--------------------------|----------------|----------------|
A  :4-4-4-4-4-4-4-4-4-4-4-4-4-|----------------|0-0-0-0-0-0-0-0-|
E  :--------------------------|4-4-4-4-4-4-4-4-|----------------|

                                                                   
G  :----------------|----------------|-----------------------------|
D  :----------------|----------------|-----------------------------|
A  :2-2-2-2-2-2-2-2-|4-4-4-4-4-4-4-4-|0-0-0-0-0-0-0-0-0-0-0-0-0-0-0|
E  :----------------|----------------|-----------------------------|

                                                            
G  :--------------------------|-----------------------------|
D  :--------------------------|-----------------------------|
A  :0-0-0-0-0-0-0-0-0-0-0-0-0-|-----------------------------|
E  :--------------------------|4-4-4-4-4-4-4-4-4-4-4-4-4-4-4|

                               
G  :---------------------------|
D  :---------------------------|
A  :---------------------------|
E  :4-4-4-4-4-4-4-4-4-4-4-4-4-4|

                                                                 
G  :-----------------------------|-------------------------------|
D  :-----------------------------|-------------------------------|
A  :0-0-0-0-0-0-0-0-0-0-0-0-0-0-0|0-0-0-0-0-0-0-0-0-0-0-0-0-0-0-0|
E  :-----------------------------|-------------------------------|

                                                                     
G  :------------------|----------------|-----------------------------|
D  :------------------|----------------|-----------------------------|
A  :7-7-7-7-7---------|7--6--7---------|2-2-2-2-2-2-2-2-2-2-2-2-2-2-2|
E  :------------------|----------------|-----------------------------|

                                                                 
G  :---------------------------|----------------|----------------|
D  :---------------------------|----------------|----------------|
A  :2-2-2-2-2-2-2-2-2-2-2-2-2-2|4--2--4---------|4--2--4---------|
E  :---------------------------|----------------|----------------|

                                                                 
G  :-----------------------------|-------------------------------|
D  :-----------------------------|-------------------------------|
A  :0-0-0-0-0-0-0-0-0-0-0-0-0-0-0|0-0-0-0-0-0-0-0-0-0-0-0-0-0-0-0|
E  :-----------------------------|-------------------------------|

                                                                     
G  :------------------|----------------|-----------------------------|
D  :------------------|----------------|-----------------------------|
A  :7-7-7-7-7---------|7--6--7---------|4-4-4-4-4-4-4-4-4-4-4-4-4-4-4|
E  :------------------|----------------|-----------------------------|

                                                                 
G  :-------------------------------|-----------------------------|
D  :-------------------------------|-----------------------------|
A  :4-4-4-4-4-4-4-4-4-4-4-4-4-4-4-4|2-2-2-2-2-2-2-2-2-2-2-2-2-2-2|
E  :-------------------------------|-----------------------------|

                    
G  :----------------|
D  :----------------|
A  :2-*-------------|
E  :----------------|

                                                                       
G  :----------------|----------------|----------------|----------------|
D  :----------------|----------------|----------------|----------------|
A  :7-7-7-7-7-7-7-7-|7-7-7-7-7-7-7-7-|2-2-2-2-2-2-2-2-|2-2-2-2-2-2-2-2-|
E  :----------------|----------------|----------------|----------------|

                                                                       
G  :----------------|----------------|----------------|----------------|
D  :----------------|----------------|----------------|----------------|
A  :0-0-0-0-0-0-0-0-|2-2-2-2-2-2-2-2-|7-7-7-7-7-7-7-7-|7-7-7-7-7-7-7-7-|
E  :----------------|----------------|----------------|----------------|

                                                                       
G  :----------------|----------------|----------------|----------------|
D  :----------------|----------------|----------------|----------------|
A  :7-7-7-7-7-7-7-7-|2-2-2-2-2-2-2-2-|4-4-4-4-4-4-4-4-|----------------|
E  :----------------|----------------|----------------|2-2-2-2-2-2-2-2-|

                                                       
G  :-------------------------|-------------------------|
D  :-------------------------|-------------------------|
A  :0-0-0-0-0-0-0-0-0-0-0-0-0|0-0-0-0-0-0-0-0-0-0-0-0-0|
E  :-------------------------|-------------------------|

                                                       
G  :-------------------------|-------------------------|
D  :-------------------------|-------------------------|
A  :2-2-2-2-2-2-2-2-2-2-2-2-2|2-2-2-2-2-2-2-2-2-2-2-2-2|
E  :-------------------------|-------------------------|

                                                                   
G  :----------------|----------------|-----------------------------|
D  :----------------|----------------|-----------------------------|
A  :4---*-----------|4---*-----------|7-7-7-7-7-7-7-7-7-7-7-7-7-7-7|
E  :----------------|----------------|-----------------------------|

                                                                 
G  :---------------------------|----------------|----------------|
D  :---------------------------|----------------|----------------|
A  :7-7-7-7-7-7-7-7-7-7-7-7-7-7|4-4-4-4-4-4-4-4-|4-4-4-4-4-4-4-4-|
E  :---------------------------|----------------|----------------|

                                                                       
G  :----------------|----------------|----------------|----------------|
D  :----------------|----------------|----------------|----------------|
A  :2-2-2-2-2-2-2-2-|2-2-2-2-2-2-2-2-|4-4-4-4-4-4-4-4-|4-4-4-4-4-4-4-4-|
E  :----------------|----------------|----------------|----------------|

                                                             
G  :-----------------------------|---------------------------|
D  :-----------------------------|---------------------------|
A  :0-0-0-0-0-0-0-0-0-0-0-0-0-0-0|0-0-0-0-0-0-0-0-0-0-0-0-0-0|
E  :-----------------------------|---------------------------|

                                                                       
G  :----------------|----------------|----------------|----------------|
D  :----------------|----------------|----------------|----------------|
A  :4-4-4-4-4-4-4-4-|4-4-4-4-4-4-4-4-|2-2-2-2-2-2-2-2-|2-2-2-2-2-2-2-2-|
E  :----------------|----------------|----------------|----------------|

                                                                   
G  :----------------|----------------|-----------------------------|
D  :----------------|----------------|-----------------------------|
A  :0-0-0-0-0-0-0-0-|0-0-0-0-0-0-0-0-|7-7-7-7-7-7-7-7-7-7-7-7-7-7-7|
E  :----------------|----------------|-----------------------------|

                                                               
G  :-------------------------|----------------|----------------|
D  :-------------------------|----------------|----------------|
A  :7-7-7-7-7-7-7-7-7-7-7-7-7|0-0-0-0-0-0-0-0-|0-0-0-0-0-0-0-0-|
E  :-------------------------|----------------|----------------|

                                                                       
G  :----------------|----------------|----------------|----------------|
D  :----------------|----------------|----------------|----------------|
A  :4-4-4-4-4-4-4-4-|2-2-2-2-2-2-2-2-|0-0-0-0-0-0-0-0-|0-0-0-0-0-0-0-0-|
E  :----------------|----------------|----------------|----------------|

                                                           
G  :-----------------------------|-------------------------|
D  :-----------------------------|-------------------------|
A  :7-7-7-7-7-7-7-7-7-7-7-7-7-7-7|7-7-7-7-7-7-7-7-7-7-7-7-7|
E  :-----------------------------|-------------------------|

                                                                       
G  :----------------|----------------|----------------|----------------|
D  :----------------|----------------|----------------|----------------|
A  :0-0-0-0-0-0-0-0-|0-0-0-0-0-0-0-0-|----------------|----------------|
E  :----------------|----------------|4-4-4-4-4-4-4-4-|4-4-4-4-4-4-4-4-|

                                                                       
G  :----------------|----------------|----------------|----------------|
D  :----------------|----------------|----------------|----------------|
A  :4-4-4-4-4-4-4-4-|4-4-4-4-4-4-4-4-|0-0-0-0-0-0-0-0-|0-0-0-0-0-0-0-0-|
E  :----------------|----------------|----------------|----------------|

                                                                       
G  :----------------|----------------|----------------|----------------|
D  :----------------|----------------|----------------|----------------|
A  :4-4-4-4-4-4-4-4-|4-4-4-4-4-4-4-4-|7-7-7-7-7-7-7-7-|----------------|
E  :----------------|----------------|----------------|7-7-7-7-7-7-7-7-|

                                                                       
G  :----------------|----------------|----------------|----------------|
D  :----------------|----------------|----------------|----------------|
A  :4-4-4-4-4-4-4-4-|4-4-4-4-4-4-4-4-|0-0-0-0-0-0-0-0-|0-0-0-0-0-0-0-0-|
E  :----------------|----------------|----------------|----------------|

                                                                       
G  :----------------|----------------|----------------|----------------|
D  :----------------|----------------|----------------|----------------|
A  :4-4-4-4-4-4-4-4-|4-4-4-4-4-4-4-4-|7-7-7-7-7-7-7-7-|----6---9---*---|
E  :----------------|----------------|----------------|7---------------|

                                                                       
G  :----------------|----------------|----------------|----------------|
D  :----------------|----------------|----------------|----------------|
A  :7---------------|----------------|2-*-------------|----------------|
E  :----------------|----------------|----------------|----------------|

                                                                       
G  :----------------|----------------|----------------|----------------|
D  :----------------|----------------|----------------|----------------|
A  :----------------|----------------|2---------------|2-------2-*-2-*-|
E  :----------------|----------------|----------------|----------------|

                                                                       
G  :----------------|----------------|----------------|----------------|
D  :----------------|----------------|----------------|----------------|
A  :----------------|----------------|4-4-4-4-4-4-4-4-|4-4-4-4-4-4-4-4-|
E  :2-2-2-2-2-2-2-2-|2-2-2-2-2-2-2-2-|----------------|----------------|

                                                                       
G  :----------------|----------------|----------------|----------------|
D  :----------------|----------------|----------------|----------------|
A  :2-2-2-2-2-2-2-2-|4-4-4-4-4-4-4-4-|----------------|----------------|
E  :----------------|----------------|2-2-2-2-2-2-2-2-|2-2-2-2-2-2-2-2-|

                                                                       
G  :----------------|----------------|----------------|----------------|
D  :----------------|----------------|----------------|----------------|
A  :----------------|4-4-4-4-4-4-4-4-|6-6-6-6-6-6-6-6-|2-2-2-2-2-2-2-2-|
E  :2-2-2-2-2-2-2-2-|----------------|----------------|----------------|

                                                       
G  :-------------------------|-------------------------|
D  :-------------------------|-------------------------|
A  :2-2-2-2-2-2-2-2-2-2-2-2-2|4-4-4-4-4-4-4-4-4-4-4-4-4|
E  :-------------------------|-------------------------|

                                                       
G  :-------------------------|-------------------------|
D  :-------------------------|-------------------------|
A  :2-2-2-2-2-2-2-2-2-2-2-2-2|4-4-4-4-4-4-4-4-4-4-4-4-4|
E  :-------------------------|-------------------------|

                                                       
G  :-------------------------|-------------------------|
D  :-------------------------|-------------------------|
A  :2-2-2-2-2-2-2-2-2-2-2-2-2|4-4-4-4-4-4-4-4-4-4-4-4-4|
E  :-------------------------|-------------------------|

                                                                       
G  :----------------|----------------|----------------|----------------|
D  :4-3-----3-------|----------------|----------------|----------------|
A  :----6-4---6-4-2-|6-4-2---2-------|2---*-----------|4---*-----------|
E  :----------------|------6---6-4-2-|----------------|----------------|

                                     
G  :----------------|----------------|
D  :----------------|----------------|
A  :----------------|----------------|
E  :2---*---2---*---|2--2--2--2---*--|

            
            
Suggest correction
Creating personal tab
Creating personal tab
You can edit any tab online and save it as your Personal.

You can edit, replace or remove any tab part or add personal notes – all changes will be seen only by you.

Personal tabs can be accessed anytime from any device, even offline.
Learn more »
Give kudos to tab author, rate the tab!
1 2 3 4 5
comments
print report bad tab
guest
You may want to rate the tab now too:
select rating
Wanna post a correction for this tab? Suggest correction