Oops, an error
Loading. Please wait.

Operation Ground And Pound tab

version 2
version 2

Whole song

Interactive

7,004 views 3 this week
9 commentsread comments
1 2 3 4 5
x 6
add to favorites
×
Save as Personal and add changes to this tab that will be seen only by you. Learn more ›
×
You can save this tab as Personal to edit and correct it or add notes. All changes will be seen only by you. Learn more »
launch autoscroll
font size
0
reset
how to read this tab
guitar tuner
backing track
0:00
0:00
edit
Autoscroll
slow
fast
+/-
esc
set tempo
stop
Author
Difficulty
                           OPERATION GROUND AND POUND
                           As recorded by DragonForce
                      (From the 2003 Album INHUMAN RAMPAGE)

Words and Music by DragonForce
Transcribed by Dan Ventress
Put up here by ken20008

Enjoy this awesome song.

Gtr I (E A D G B E) - 'Lead I'
Gtr II (E A D G B E) - 'Lead II'
Gtr III (B E A D G B E) - 'Rhythm I'
Gtr IV (E A D G B E) - 'Lead I w/Octave'

  Q=200
 4/4
  Gtr I
|------10-8-10-(10)----8-|-10--12-10-8-10-8----8-|
|---10--------------10---|------------------10---|
|-7----------------------|-----------------------|
|------------------------|-----------------------|
|------------------------|-----------------------|
|------------------------|-----------------------|
|
| Gtr II
|------------------------|-----------------------|
|------------------------|-----------------------|
|-------7-5--7--(7)----5-|--7---9--7-5--7-5----5-|
|----7---------------7---|-------------------7---|
|-5----------------------|-----------------------|
|------------------------|-----------------------|
|
| Gtr III
|------------------------|-----------------------|
|------------------------|-----------------------|
|------------------------|-----------------------|
|------------------------|-----------------------|
|-5----------------------|-(5)-------------------|
|-5----------------------|-(5)-------------------|
|-3----------------------|-(3)-------------------|


|--------10-8-10-(10)----8-|-10--12-10-8-10-8----8--|
|-----10--------------10---|------------------10----|
|--------------------------|------------------------|
|--------------------------|------------------------|
|--------------------------|------------------------|
|--------------------------|------------------------|
|
|--------------------------|------------------------|
|--------------------------|------------------------|
|---------7-5--7--(7)----5-|--7---9--7-5--7-5----5--|
|------7---------------7---|-------------------7----|
|--------------------------|------------------------|
|--------------------------|------------------------|
|
|--------------------------|------------------------|
|--------------------------|------------------------|
|--------------------------|------------------------|
|--------------------------|------------------------|
|-(5)----------------------|-(5)--------------------|
|-(5)----------------------|-(5)--------------------|
|-(3)----------------------|-(3)--------------------|


|------10-8-10-(10)----8-|-10--12-10-8-10-8----8-|
|---10--------------10---|------------------10---|
|------------------------|-----------------------|
|------------------------|-----------------------|
|------------------------|-----------------------|
|------------------------|-----------------------|
|
|------------------------|-----------------------|
|------------------------|-----------------------|
|-------7-5--7--(7)----5-|--7---9--7-5--7-5----5-|
|----7---------------7---|-------------------7---|
|------------------------|-----------------------|
|------------------------|-----------------------|
|
|------------------------|-----------------------|
|------------------------|-----------------------|
|------------------------|-----------------------|
|-3----------------------|-(3)-------------------|
|-3----------------------|-(3)-------------------|
|-1----------------------|-(1)-------------------|
|------------------------|-----------------------|


|------10-8-10-(10)----8-|-10--12-10-8-10-8----8-|
|---10--------------10---|------------------10---|
|------------------------|-----------------------|
|------------------------|-----------------------|
|------------------------|-----------------------|
|------------------------|-----------------------|
|
|------------------------|-----------------------|
|------------------------|-----------------------|
|-------7-5--7--(7)----5-|--7---9--7-5--7-5----5-|
|----7---------------7---|-------------------7---|
|------------------------|-----------------------|
|------------------------|-----------------------|
|
|------------------------|-----------------------|
|------------------------|-----------------------|
|-5----------------------|-(5)-------------------|
|-5----------------------|-(5)-------------------|
|-3----------------------|-(3)-------------------|
|------------------------|-----------------------|
|------------------------|-----------------------|


|------10-8-10-(10)----8-|-10--12-10-8-10-8----8-|
|---10--------------10---|------------------10---|
|------------------------|-----------------------|
|------------------------|-----------------------|
|------------------------|-----------------------|
|------------------------|-----------------------|
|
|------------------------|-----------------------|
|------------------------|-----------------------|
|-------7-5--7--(7)----5-|--7---9--7-5--7-5----5-|
|----7---------------7---|-------------------7---|
|------------------------|-----------------------|
|------------------------|-----------------------|
|
|------------------------|-----------------------|
|------------------------|-----------------------|
|------------------------|-----------------------|
|------------------------|-----------------------|
|-5----------------------|-(5)-------------------|
|-5----------------------|-(5)-------------------|
|-3----------------------|-(3)-------------------|


|------10-8-10-(10)----8-|-10--12-10-8-10-8----8-|
|---10--------------10---|------------------10---|
|------------------------|-----------------------|
|------------------------|-----------------------|
|------------------------|-----------------------|
|------------------------|-----------------------|
|
|------------------------|-----------------------|
|------------------------|-----------------------|
|-------7-5--7--(7)----5-|--7---9--7-5--7-5----5-|
|----7---------------7---|-------------------7---|
|------------------------|-----------------------|
|------------------------|-----------------------|
|
|------------------------|-----------------------|
|------------------------|-----------------------|
|------------------------|-----------------------|
|------------------------|-----------------------|
|-5----------------------|-(5)-------------------|
|-5----------------------|-(5)-------------------|
|-3----------------------|-(3)-------------------|


|------10-8-10-(10)----8-|-10--12-10-8-10-8----8-|
|---10--------------10---|------------------10---|
|------------------------|-----------------------|
|------------------------|-----------------------|
|------------------------|-----------------------|
|------------------------|-----------------------|
|
|------------------------|-----------------------|
|------------------------|-----------------------|
|-------7-5--7--(7)----5-|--7---9--7-5--7-5----5-|
|----7---------------7---|-------------------7---|
|------------------------|-----------------------|
|------------------------|-----------------------|
|
|------------------------|-----------------------|
|------------------------|-----------------------|
|------------------------|-----------------------|
|-3----------------------|-(3)-------------------|
|-3----------------------|-(3)-------------------|
|-1----------------------|-(1)-------------------|
|------------------------|-----------------------|


|------10-8-10-(10)----8-|-10--12-10-8-10-8----8-||
|---10--------------10---|------------------10---||
|------------------------|-----------------------||
|------------------------|-----------------------||
|------------------------|-----------------------||
|------------------------|-----------------------||
|
|------------------------|-----------------------||
|------------------------|-----------------------||
|-------7-5--7--(7)----5-|--7---9--7-5--7-5----5-||
|----7---------------7---|-------------------7---||
|------------------------|-----------------------||
|------------------------|-----------------------||
|
|------------------------|-----------------------||
|------------------------|-----------------------||
|-5----------------------|-(5)-------------------||
|-5----------------------|-(5)-------------------||
|-3----------------------|-(3)-------------------||
|------------------------|-----------------------||
|------------------------|-----------------------||


|------10-8-10-(10)----8-|-10--12-10-8-10-8----8-|
|---10--------------10---|------------------10---|
|-7----------------------|-----------------------|
|------------------------|-----------------------|
|------------------------|-----------------------|
|------------------------|-----------------------|
|
|------------------------|-----------------------|
|------------------------|-----------------------|
|-------7-5--7--(7)----5-|--7---9--7-5--7-5----5-|
|----7---------------7---|-------------------7---|
|-5----------------------|-----------------------|
|------------------------|-----------------------|
|
|------------------------|-----------------------|
|------------------------|-----------------------|
|------------------------|-----------------------|
|------------------------|-----------------------|
|-5----------------------|-(5)-------------------|
|-5----------------------|-(5)-------------------|
|-3----------------------|-(3)-------------------|


|------10-8-10-(10)----8-|-10--12-10-8-10-8----8-|
|---10--------------10---|------------------10---|
|------------------------|-----------------------|
|------------------------|-----------------------|
|------------------------|-----------------------|
|------------------------|-----------------------|
|
|------------------------|-----------------------|
|------------------------|-----------------------|
|-------7-5--7--(7)----5-|--7---9--7-5--7-5----5-|
|----7---------------7---|-------------------7---|
|------------------------|-----------------------|
|------------------------|-----------------------|
|
|------------------------|-----------------------|
|------------------------|-----------------------|
|------------------------|-----------------------|
|-3----------------------|-(3)-------------------|
|-3----------------------|-(3)-------------------|
|-1----------------------|-(1)-------------------|
|------------------------|-----------------------|


|------10-8-10-(10)----8-|-10--12-10-8-10-8----8-|
|---10--------------10---|------------------10---|
|------------------------|-----------------------|
|------------------------|-----------------------|
|------------------------|-----------------------|
|------------------------|-----------------------|
|
|------------------------|-----------------------|
|------------------------|-----------------------|
|-------7-5--7--(7)----5-|--7---9--7-5--7-5----5-|
|----7---------------7---|-------------------7---|
|------------------------|-----------------------|
|------------------------|-----------------------|
|
|------------------------|-----------------------|
|------------------------|-----------------------|
|-5----------------------|-(5)-------------------|
|-5----------------------|-(5)-------------------|
|-3----------------------|-(3)-------------------|
|------------------------|-----------------------|
|------------------------|-----------------------|


|------10-8-10-(10)----8-|-10--12-10-8-10-8----8-||
|---10--------------10---|------------------10---||
|------------------------|-----------------------||
|------------------------|-----------------------||
|------------------------|-----------------------||
|------------------------|-----------------------||
|
|------------------------|-----------------------||
|------------------------|-----------------------||
|-------7-5--7--(7)----5-|--7---9--7-5--7-5----5-||
|----7---------------7---|-------------------7---||
|------------------------|-----------------------||
|------------------------|-----------------------||
|
|------------------------|-----------------------||
|------------------------|-----------------------||
|-2----------------------|-(2)-------------------||
|-2----------------------|-(2)-------------------||
|-0----------------------|-(0)-------------------||
|------------------------|-----------------------||
|------------------------|-----------------------||


|------10-8-10-(10)----8-|-10--12-10-8-10-8----8-|
|---10--------------10---|------------------10---|
|------------------------|-----------------------|
|------------------------|-----------------------|
|------------------------|-----------------------|
|------------------------|-----------------------|
|
|------------------------|-----------------------|
|------------------------|-----------------------|
|-------7-5--7--(7)----5-|--7---9--7-5--7-5----5-|
|----7---------------7---|-------------------7---|
|------------------------|-----------------------|
|------------------------|-----------------------|
|
|------------------------|-----------------------|
|------------------------|-----------------------|
|------------------------|-----------------------|
|------------------------|-----------------------|
|-5----------------------|-(5)-------------------|
|-5----------------------|-(5)-------------------|
|-3----------------------|-(3)-------------------|


|------10-8-10-(10)----8-|-10--12-10-8-10-8----8-|
|---10--------------10---|------------------10---|
|------------------------|-----------------------|
|------------------------|-----------------------|
|------------------------|-----------------------|
|------------------------|-----------------------|
|
|------------------------|-----------------------|
|------------------------|-----------------------|
|-------7-5--7--(7)----5-|--7---9--7-5--7-5----5-|
|----7---------------7---|-------------------7---|
|------------------------|-----------------------|
|------------------------|-----------------------|
|
|------------------------|-----------------------|
|------------------------|-----------------------|
|------------------------|-----------------------|
|-3----------------------|-(3)-------------------|
|-3----------------------|-(3)-------------------|
|-1----------------------|-(1)-------------------|
|------------------------|-----------------------|


|------10-8-10-(10)----8-|-10--12-10-8-10-8----8-|
|---10--------------10---|------------------10---|
|------------------------|-----------------------|
|------------------------|-----------------------|
|------------------------|-----------------------|
|------------------------|-----------------------|
|
|------------------------|-----------------------|
|------------------------|-----------------------|
|-------7-5--7--(7)----5-|--7---9--7-5--7-5----5-|
|----7---------------7---|-------------------7---|
|------------------------|-----------------------|
|------------------------|-----------------------|
|
|------------------------|-----------------------|
|------------------------|-----------------------|
|-5----------------------|-(5)-------------------|
|-5----------------------|-(5)-------------------|
|-3----------------------|-(3)-------------------|
|------------------------|-----------------------|
|------------------------|-----------------------|


|------10-8-10-(10)----8-|-10--12-10-8-10-8----8-||
|---10--------------10---|------------------10---||
|------------------------|-----------------------||
|------------------------|-----------------------||
|------------------------|-----------------------||
|------------------------|-----------------------||
|
|------------------------|-----------------------||
|------------------------|-----------------------||
|-------7-5--7--(7)----5-|--7---9--7-5--7-5----5-||
|----7---------------7---|-------------------7---||
|------------------------|-----------------------||
|------------------------|-----------------------||
|
|------------------------|-----------------------||
|------------------------|-----------------------||
|-2----------------------|-(2)-------------------||
|-2----------------------|-(2)-------------------||
|-0----------------------|-(0)-------------------||
|------------------------|-----------------------||
|------------------------|-----------------------||


|------10-8-10-(10)----8-|-10--12-10-8-10-8----8-|
|---10--------------10---|------------------10---|
|-7----------------------|-----------------------|
|------------------------|-----------------------|
|------------------------|-----------------------|
|------------------------|-----------------------|
|
|------------------------|-----------------------|
|------------------------|-----------------------|
|-------7-5--7--(7)----5-|--7---9--7-5--7-5----5-|
|----7---------------7---|-------------------7---|
|-5----------------------|-----------------------|
|------------------------|-----------------------|
|
|------------------------|-----------------------|
|------------------------|-----------------------|
|-7----------------------|-(7)-------------------|
|-7----------------------|-(7)-------------------|
|-5----------------------|-(5)-------------------|
|------------------------|-----------------------|
|------------------------|-----------------------|


|------10-8-10-(10)----8-|-10--12-10-8-10-8----8-|
|---10--------------10---|------------------10---|
|------------------------|-----------------------|
|------------------------|-----------------------|
|------------------------|-----------------------|
|------------------------|-----------------------|
|
|------------------------|-----------------------|
|------------------------|-----------------------|
|-------7-5--7--(7)----5-|--7---9--7-5--7-5----5-|
|----7---------------7---|-------------------7---|
|------------------------|-----------------------|
|------------------------|-----------------------|
|
|------------------------|-----------------------|
|------------------------|-----------------------|
|------------------------|-----------------------|
|-3----------------------|-(3)-------------------|
|-3----------------------|-(3)-------------------|
|-1----------------------|-(1)-------------------|
|------------------------|-----------------------|


|------10-8-10-(10)----8-|-10--12-10-8-10-8----8-|
|---10--------------10---|------------------10---|
|------------------------|-----------------------|
|------------------------|-----------------------|
|------------------------|-----------------------|
|------------------------|-----------------------|
|
|------------------------|-----------------------|
|------------------------|-----------------------|
|-------7-5--7--(7)----5-|--7---9--7-5--7-5----5-|
|----7---------------7---|-------------------7---|
|------------------------|-----------------------|
|------------------------|-----------------------|
|
|------------------------|-----------------------|
|------------------------|-----------------------|
|-5----------------------|-(5)-------------------|
|-5----------------------|-(5)-------------------|
|-3----------------------|-(3)-------------------|
|------------------------|-----------------------|
|------------------------|-----------------------|


|-10-10-8----8-8------|-------[10]--------------|
|---------10-----10-8-|-10-10------10-8---------|
|---------------------|-----------------10-7----|
|---------------------|----------------------10-|
|---------------------|-------------------------|
|---------------------|-------------------------|
|
|---------------------|-------------------------|
|---------------------|-------------------------|
|--7--7-5----5-5------|--------[7]--------------|
|----------7------7-5-|--7--7-------7-5---------|
|---------------------|------------------8-5----|
|---------------------|-----------------------8-|
|
|---------------------|-------------------------|
|---------------------|-------------------------|
|--3------------------|--2----------------------|
|--3------------------|--2----------------------|
|--1------------------|--0----------------------|
|---------------------|-------------------------|
|---------------------|-------------------------|


   ~~~~~~~~~~~~~~~~
|------------|------------|-10---------|-(10)----|
|------------|------------|------------|---------|
|-[7]--------|-(7)--------|------------|---------|
|------------|------------|------------|---------|
|------------|------------|------------|---------|
|------------|------------|------------|---------|
|
|  ~~~~~~~~~~~~~~~~
|------------|------------|------------|---------|
|------------|------------|-10---------|-(10)----|
|------------|------------|------------|---------|
|-[7]--------|-(7)--------|------------|---------|
|------------|------------|------------|---------|
|------------|------------|------------|---------|
|
|------------|------------|------------|---------|
|------------|------------|------------|---------|
|--7---------|-(7)--------|-(7)--------|--(7)----|
|--7---------|-(7)--------|-(7)--------|--(7)----|
|--5---------|-(5)--------|-(5)--------|--(5)----|
|------------|------------|------------|---------|
|------------|------------|------------|---------|


|-(10)--------|-(10)-----------||--------------------------------------|
|-------------|----------------||--------------------------------------|
|-------------|----------------||------------------14------------------|
|-------------|----------------||---15---15---15--------15---14---15---|
|-------------|----------------||--------------------------------------|
|-------------|----------------||--------------------------------------|
|
|-------------|----------------||--------------------------------------|
|-(10)--------|-(10)-----------||--------------------------------------|
|-------------|----------------||--------------------------------------|
|-------------|----------------||------------------15------------------|
|-------------|----------------||---17---17---17--------17---15---17---|
|-------------|----------------||--------------------------------------|
|
|-------------|----------------||--------------------------------------|
|-------------|----------------||--------------------------------------|
|-------------|---------2-2-5--||--------------------------------------|
|-------------|---------2-2-5--||-7------------------------------------|
|-------------|---------0-0-3--||-5--5-5--5-5--5-5--5-5--5-5--5-5--5-5-|
|-------------|----------------||--------------------------------------|
|-------------|----------------||--------------------------------------|


|------------------------------------------|
|---------------------------------13-------|
|-------------14--------14---15------------|
|-(15)---15--------15----------------------|
|------------------------------------------|
|------------------------------------------|
|
|------------------------------------------|
|------------------------------------------|
|---------------------------------14-------|
|-------------15--------15---17------------|
|-(17)---17--------17----------------------|
|------------------------------------------|
|
|------------------------------------------|
|------------------------------------------|
|------------------------------------------|
|------------------------------------------|
|---5--5--5-5--5-5--5-5--5-5--5-5--5-5-5-5-|
|------------------------------------------|
|------------------------------------------|


|--------------------------------------|
|---------------------------------13---|
|--------14---14---15---14---15--------|
|---15---------------------------------|
|--------------------------------------|
|--------------------------------------|
|
|--------------------------------------|
|--------------------------------------|
|---------------------------------14---|
|--------15---15---17---15---17--------|
|---17---------------------------------|
|--------------------------------------|
|
|--------------------------------------|
|--------------------------------------|
|--------------------------------------|
|-7------------------------------------|
|-5--5-5--5-5--5-5--5-5--5-5--5-5--5-5-|
|--------------------------------------|
|--------------------------------------|


|---------------------------------------------|
|-18p13-17p13----------------13---------------|
|-------------15---14---15--------15---[14]---|
|---------------------------------------------|
|---------------------------------------------|
|---------------------------------------------|
|
|---------------------------------------------|
|---------------------------------------------|
|-19p14-17p14----------------14---------------|
|-------------17---15---17--------17---[15]---|
|---------------------------------------------|
|---------------------------------------------|
|
|---------------------------------------------|
|---------------------------------------------|
|---------------------------------------------|
|---------------------------------------------|
|--5--5--5--5--5-5--5-5--5-5--5-5--5-5---5--5-|
|---------------------------------------------|
|---------------------------------------------|


|-------------------------------------------------|
|-13h15-15-15-15-15-15-15-18p15-15-15-15-15-15-15-|
|-------------------------------------------------|
|-------------------------------------------------|
|-------------------------------------------------|
|-------------------------------------------------|
|
|-------------------------------------------------|
|-------------------------------------------------|
|-------------------------------------------------|
|-10h12-12-12-12-12-12-12-15p12-12-12-12-12-12-12-|
|-------------------------------------------------|
|-------------------------------------------------|
|
|-------------------------------------------------|
|-------------------------------------------------|
|-------------------------------------------------|
|-------------------------------------------------|
|--5----------------------------------------------|
|--3-----3--3--3--3--3--3--3--3--3--3--3--3--3--3-|
|-------------------------------------------------|


|-------------------------------------------------|
|-13h15-15-15-15-15-15-15-18p15-15-15-15-15-15-15-|
|-------------------------------------------------|
|-------------------------------------------------|
|-------------------------------------------------|
|-------------------------------------------------|
|
|-------------------------------------------------|
|-------------------------------------------------|
|-------------------------------------------------|
|-10h12-12-12-12-12-12-12-15p12-12-12-12-12-12-12-|
|-------------------------------------------------|
|-------------------------------------------------|
|
|-------------------------------------------------|
|-------------------------------------------------|
|-------------------------------------------------|
|-------------------------------------------------|
|-------------------------------------------------|
|--3--3--3--3--3--3--3--3--3--3--3--3--3--3--3--3-|
|-------------------------------------------------|


|----------------------|--------------------------||
|----------------------|--------------------------||
|-15-15--14-15b17r==14-|-15--15--14-[15]b17r==14--||
|----------------------|--------------------------||
|----------------------|--------------------------||
|----------------------|--------------------------||
|
|----------------------|--------------------------||
|----------------------|--------------------------||
|----------------------|--------------------------||
|-17-17--15-17b19r==15-|-17--17--15-[17]b19r==15--||
|----------------------|--------------------------||
|----------------------|--------------------------||
|
|----------------------|--------------------------||
|----------------------|--------------------------||
|--2-------------------|-(2)----------------------||
|--2-------------------|-(2)----------------------||
|--0-------------------|-(0)----------------------||
|----------------------|--------------------------||
|----------------------|--------------------------||


|-------------------------------------------|
|-15-15---(15)---13---15---15---(15)---13---|
|-------------------------------------------|
|-------------------------------------------|
|-------------------------------------------|
|-------------------------------------------|
|
|-------------------------------------------|
|-------------------------------------------|
|-14-14---(14)---14---14---14---(14)---14---|
|-------------------------------------------|
|-------------------------------------------|
|-------------------------------------------|
|
|-------------------------------------------|
|-------------------------------------------|
|-------------------------------------------|
|--7----------------------------------------|
|--5--5-5---5--5--5-5--5-5--5-5---5--5--5-5-|
|-------------------------------------------|
|-------------------------------------------|


|-------------------------------------------|
|-15---15---(15)---13---15---13--------13---|
|---------------------------------14--------|
|-------------------------------------------|
|-------------------------------------------|
|-------------------------------------------|
|
|-------------------------------------------|
|-------------------------------------------|
|-14---14---(14)---14---14---14--------14---|
|---------------------------------15--------|
|-------------------------------------------|
|-------------------------------------------|
|
|-------------------------------------------|
|-------------------------------------------|
|-------------------------------------------|
|-------------------------------------------|
|--5-5--5-5---5--5--5-5--5-5--5-5--5-5--5-5-|
|-------------------------------------------|
|-------------------------------------------|


|----------------------------------|--------------------------------------|
|-13-------------------------------|--------------------15-------18-------|
|------------12s==14---------------|-(14)---------------------------------|
|----------------------------------|--------------------------------------|
|----------------------------------|--------------------------------------|
|----------------------------------|--------------------------------------|
|
|----------------------------------|--------------------------------------|
|----------------------------------|--------------------------------------|
|-14-------------------------------|--------------------------------------|
|------------14S==15---------------|-(15)---------------12-------15-------|
|----------------------------------|--------------------------------------|
|----------------------------------|--------------------------------------|
|
|----------------------------------|--------------------------------------|
|----------------------------------|--------------------------------------|
|----------------------------------|--------------------------------------|
|----------------------------------|--------------------------------------|
|--3-------------------------------|--------------------------------------|
|--1-1-1-1-1--1-1--1-1-1-1-1-1-1-1-|---1--1-1-1-1-1-1-1--1-1-1-1--1-1-1-1-|
|----------------------------------|--------------------------------------|


|-15-----15b17r=======================|==================15-------17-------|
|------------------------18-----------|-----x---18---x--------x--------x---|
|-------------------------------------|------------------------------------|
|-------------------------------------|------------------------------------|
|-------------------------------------|------------------------------------|
|-------------------------------------|------------------------------------|
|
|-------------------------------------|------------------------------------|
|-------------------------------------|------------------------------------|
|-12-----12b14r=======================|==================12-------14-------|
|------------------------15-----------|-----x---15---x--------x--------x---|
|-------------------------------------|------------------------------------|
|-------------------------------------|------------------------------------|
|
|-------------------------------------|------------------------------------|
|-------------------------------------|------------------------------------|
|-------------------------------------|------------------------------------|
|--5----------------------------------|------------------------------------|
|--3-3-3--3----3-3-3-3-3--3-3-3-3-3-3-|-3-3-3-3--3-3-3-3--3-3-3-3--3-3-3-3-|
|-------------------------------------|------------------------------------|
|-------------------------------------|------------------------------------|


|-------------------------------------------------|-------------------------------------------------||
|-13-13-------------------------------------------|-------------------------------------------------||
|-------14-14-15-15-12-12-14-14-------12-12-------|-12p=9-----9-14p10----10-15p12----12-17p14----14-||
|-------------------------------15-15-------14-14-|-------10----------12----------14----------15----||
|-------------------------------------------------|-------------------------------------------------||
|-------------------------------------------------|-------------------------------------------------||
|
|-------------------------------------------------|-------------------------------------------------||
|-------------------------------------------------|-------------------------------------------------||
|-14-14-------------------------------------------|-------------------------------------------------||
|-------15-15-17-17-14-14-15-15-------14-14-------|-14p10----10-15p12----12-17p14----14-19p15----15-||
|-------------------------------17-17-------15-15-|-------12----------14----------15----------17----||
|-------------------------------------------------|-------------------------------------------------||
|
|-------------------------------------------------|-------------------------------------------------||
|-------------------------------------------------|-------------------------------------------------||
|--3----------------------------------------------|--2----------------------------------------------||
|--3----------------------------------------------|--2----------------------------------------------||
|--1----------------------------------------------|--0----------------------------------------------||
|-------------------------------------------------|-------------------------------------------------||
|-------------------------------------------------|-------------------------------------------------||


                                                              ~~
|------------------17h20p17----------|-/20--/20--20p17-------------|
|-18-18-18-18-18\-----------20-18-20-|-----------------20-18s22----|
|------------------------------------|-----------------------------|
|------------------------------------|-----------------------------|
|------------------------------------|-----------------------------|
|------------------------------------|-----------------------------|
|
|                                                             ~~
|------------------------------------|-----------------------------|
|------------------18h22p18----------|-/22--/22--22p18-------------|
|-19-19-19-19-19\-----------19-19-19-|-----------------21-19s22----|
|------------------------------------|-----------------------------|
|------------------------------------|-----------------------------|
|------------------------------------|-----------------------------|
|
|------------------------------------|-----------------------------|
|------------------------------------|-----------------------------|
|--7-----------7----------5--------5-|---7----7--------------------|
|--7-----------7----------5--------5-|---7----7--------------------|
|--5-----------5----------3--------3-|---5----5--------------------|
|------------------------------------|-----------------------------|
|------------------------------------|-----------------------------|


   T     T     T     T                        ~~~~
|-20-17-20-17-20-17-20-17-------------/17-|-/24---------||
|-------------------------/18---/20-------|-------------||
|-----------------------------------------|-------------||
|-----------------------------------------|-------------||
|-----------------------------------------|-------------||
|-----------------------------------------|-------------||
|
|  T     T     T     T                        ~~~~
|-----------------------------------------|-/20---------||
|-22-18-22-18-22-18-22-18-------------/18-|-------------||
|-------------------------/19---/21-------|-------------||
|-----------------------------------------|-------------||
|-----------------------------------------|-------------||
|-----------------------------------------|-------------||
|
|-----------------------------------------|-------------||
|-----------------------------------------|-------------||
|---------------------------------------2-|--(2)--------||
|--5-----------5--------------3---------2-|--(2)--------||
|--5-----------5--------------3---------0-|--(0)--------||
|--3-----------3--------------1-----------|-------------||
|-----------------------------------------|-------------||


|-------------------------------|-----------------|
|-------------------------------|-----------------|
|-------------------------------|-----------------|
|-------------------------------|-----------------|
|-------------------------------|-----------------|
|-------------------------------|-----------------|
|
|-------------------------------|-----------------|
|-------------------------------|-----------------|
|-------------------------------|-----------------|
|-------------------------------|-----------------|
|-------------------------------|-----------------|
|-------------------------------|-----------------|
|
|-------------------------------|-----------------|
|-------------------------------|-----------------|
|-------------------------------|-----------------|
|-4-----------------------------|---4------4------|
|-2-2-2-2-2-2-2-2-2-2-2-2-2-2-2-|-2-2--2-2-2--2---|
|-------------------------------|-----------------|
|-------------------------------|-----------------|


  Gtr III
|-------------------------------|---------------|
|-------------------------------|---------------|
|-------------------------------|---------------|
|-2-----------------------------|---2------2----|
|-0-0-0-0-0-0-0-0-0-0-0-0-0-0-0-|-0-0--0-0-0--0-|
|-------------------------------|---------------|
|-------------------------------|---------------|


|--------------------------------|
|--------------------------------|
|--------------------------------|
|--------------------------------|
|-5------------------------------|
|-3-3-3-3-3-3-3-3-3-3-3-3-3-3-3--|
|--------------------------------|


|---------------------------------|----------|------------------||
|---------------------------------|----------|------------------||
|---------------------------------|-4--------|-2-2-2-2-2-2-2-2--||
|---------------------------------|-4--------|-2-2-2-2-2-2-2-2--||
|---------------------------------|-2--------|-0-0-0-0-0-0-0-0--||
|-3-3-3-3-3-3-3-3-3-3-3-3-3-3-3-3-|----------|------------------||
|---------------------------------|----------|------------------||


|-------------------------------|---------------|
|-------------------------------|---------------|
|-------------------------------|---------------|
|-4-----------------------------|---4------4----|
|-2-2-2-2-2-2-2-2-2-2-2-2-2-2-2-|-2-2--2-2-2--2-|
|-------------------------------|---------------|
|-------------------------------|---------------|


|-------------------------------|---------------|
|-------------------------------|---------------|
|-------------------------------|---------------|
|-2-----------------------------|---2------2----|
|-0-0-0-0-0-0-0-0-0-0-0-0-0-0-0-|-0-0--0-0-0--0-|
|-------------------------------|---------------|
|-------------------------------|---------------|


|-------------------------------|
|-------------------------------|
|-------------------------------|
|-------------------------------|
|-5-----------------------------|
|-3-3-3-3-3-3-3-3-3-3-3-3-3-3-3-|
|-------------------------------|


|---------------------------------|----------|------||
|---------------------------------|----------|------||
|---------------------------------|-4--------|-2----||
|---------------------------------|-4--------|-2----||
|---------------------------------|-2--------|-0----||
|-3-3-3-3-3-3-3-3-3-3-3-3-3-3-3-3-|----------|------||
|---------------------------------|----------|------||


|-----------------|-----------------|----------|------------|-----------------|
|-----------------|-----------------|----------|------------|-----------------|
|-----------------|-----------------|-4--------|-(4)--------|-----------------|
|-----------------|-----------------|-4--------|-(4)--------|-----------------|
|-5-----5-----5---|-5-----5-----5---|-2--------|-(2)--------|-2-----2-----2---|
|-3-3-3-3-3-3-3-3-|-3-3-3-3-3-3-3-3-|----------|------------|-0-0-0-0-0-0-0-0-|
|-----------------|-----------------|----------|------------|-----------------|


|-----------------|----------|---------------||------|
|-----------------|----------|---------------||------|
|-----------------|-4--------|-2-2-2-2--2--2-||-7----|
|-----------------|-4--------|-2-2-2-2--2--2-||-7----|
|-2-----2-----2---|-2--------|-0-0-0-0--0--0-||-5----|
|-0-0-0-0-0-0-0-0-|----------|---------------||------|
|-----------------|----------|---------------||------|


|----------|----------|-------------------------|
|----------|----------|-------------------------|
|-2--------|-4--------|-------------------------|
|-2--------|-4--------|-----[4]-[5]-----[4]-[5]-|
|-0--------|-2--------|-2-2---------2-2---------|
|----------|----------|-------------------------|
|----------|----------|-------------------------|


|-------------------------------|--------------------------------|
|-------------------------------|--------------------------------|
|-------------------------------|--------------------------------|
|-7-----------------------------|-2------------------------------|
|-5-5-5-5-5-5-5-5-5-5-5-5-5-5-5-|-0-0-0-0-0-0-0-0-0-0-0-0-0-0-0--|
|-------------------------------|--------------------------------|
|-------------------------------|--------------------------------|


|-------------------------------|---------------------------------||
|-------------------------------|---------------------------------||
|-------------------------------|---------------------------------||
|-------------------------------|---------------------------------||
|-5-----------------------------|---------------------------------||
|-3-3-3-3-3-3-3-3-3-3-3-3-3-3-3-|-3-3-3-3-3-3-3-3-3-3-3-3-3-3-3-3-||
|-------------------------------|---------------------------------||


|-----------------|----------|------------------|------|
|-----------------|----------|------------------|------|
|-----------------|-2--------|-------------[4]--|------|
|-7-----7-----7---|-2--------|-4-----4----------|-5----|
|-5-5-5-5-5-5-5-5-|-0--------|-2-2-2-2-2-2------|-5----|
|-----------------|----------|------------------|-3----|
|-----------------|----------|------------------|------|


|-------------------------------|
|-------------------------------|
|-------------------------------|
|-------------------------------|
|-2-----------------------------|
|-0-0-0-0-0-0-0-0-0-0-0-0-0-0-0-|
|-------------------------------|


|---------------------------------|----------|----------||
|---------------------------------|----------|----------||
|---------------------------------|-2--------|-2--------||
|---------------------------------|-2--------|-2--------||
|---------------------------------|-0--------|-0--------||
|-0-0-0-0-0-0-0-0-0-0-0-0-0-0-0-0-|----------|----------||
|---------------------------------|----------|----------||


|----------|------------|----------|--------|
|----------|------------|----------|--------|
|----------|------------|-2--------|-(2)----|
|-2--------|-(2)--------|-2--------|-(2)----|
|-2--------|-(2)--------|-0--------|-(0)----|
|-0--------|-(0)--------|----------|--------|
|----------|------------|----------|--------|


|----------|------------|----------|--------|
|----------|------------|----------|--------|
|-6--------|-(6)--------|-2--------|-(2)----|
|-6--------|-(6)--------|-2--------|-(2)----|
|-4--------|-(4)--------|-0--------|-(0)----|
|----------|------------|----------|--------|
|----------|------------|----------|--------|


|-------------------------------|---------------------------------|
|-------------------------------|---------------------------------|
|-------------------------------|---------------------------------|
|-6-----------------------------|---------------------------------|
|-4-4-4-4-4-4-4-4-4-4-4-4-4-4-4-|-4-4-4-4-4-4-4-4-4-4-4-4-4-4-4-4-|
|-------------------------------|---------------------------------|
|-------------------------------|---------------------------------|


|-------------------------------|
|-------------------------------|
|-------------------------------|
|-2-----------------------------|
|-0-0-0-0-0-0-0-0-0-0-0-0-0-0-0-|
|-------------------------------|
|-------------------------------|


|---------------------------------|----------|-----------------|
|---------------------------------|----------|-----------------|
|---------------------------------|-4--------|-----------------|
|---------------------------------|-4--------|-4-----4-----4---|
|-0-0-0-0-0-0-0-0-0-0-0-0-0-0-0-0-|-2--------|-2-2-2-2-2-2-2-2-|
|---------------------------------|----------|-----------------|
|---------------------------------|----------|-----------------|


|----------|-------------------------|----------|--------|
|----------|-------------------------|----------|--------|
|-2--------|-------------------------|-4--------|-(4)----|
|-2--------|-------------------------|-4--------|-(4)----|
|-0--------|-0-0-0-0-0-0-0-0-0-0-0-0-|-2--------|-(2)----|
|----------|-------------------------|----------|--------|
|----------|-------------------------|----------|--------|


  Gtr I
|----------|-----19--19--|-19------17-16-|-12--------|
|----------|-------------|---------------|-----------|
|----------|-------------|---------------|-----------|
|----------|-------------|---------------|-----------|
|----------|-------------|---------------|-----------|
|----------|-------------|---------------|-----------|
|
| Gtr II
|----------|-------------|---------------|-----------|
|----------|------9---9--|--9------------|-----------|
|----------|-------------|---------11--9-|-----------|
|----------|-------------|---------------|-11--------|
|----------|-------------|---------------|-----------|
|----------|-------------|---------------|-----------|
|
| Gtr III
|----------|-------------|---------------|-----------|
|----------|-------------|---------------|-----------|
|-2--------|-------------|---------------|--2--------|
|-2--------|-------------|--2------------|--2--------|
|-0--------|-------------|--2------------|--0--------|
|----------|-------------|--0------------|-----------|
|----------|-------------|---------------|-----------|


|-12---14---16--|-14--------|-12---14---16--|-14---12---11--|
|---------------|-----------|---------------|---------------|
|---------------|-----------|---------------|---------------|
|---------------|-----------|---------------|---------------|
|---------------|-----------|---------------|---------------|
|---------------|-----------|---------------|---------------|
|
|---------------|-----------|---------------|---------------|
|---------------|-----------|---------------|---------------|
|-------8----9--|--8--------|-------8----9--|--8------------|
|-11------------|-----------|-11------------|------11----9--|
|---------------|-----------|---------------|---------------|
|---------------|-----------|---------------|---------------|
|
|---------------|-----------|---------------|---------------|
|---------------|-----------|---------------|---------------|
|--6------------|--4--------|--2------------|---------------|
|--6------------|--4--------|--2------------|---------------|
|--4------------|--2--------|--0------------|---------------|
|---------------|-----------|---------------|---------------|
|---------------|-----------|---------------|---------------|


|-12-----------------------------|-----------|-------------||
|--------------------------------|-----------|-------------||
|--------------------------------|-----------|-------------||
|--------------------------------|-----------|-------------||
|--------------------------------|-----------|-------------||
|--------------------------------|-----------|-------------||
|
|--------------------------------|-----------|-------------||
|--------------------------------|-----------|-------------||
|--------------------------------|-----------|-------------||
|--9-----------------------------|-----------|-------------||
|--------------------------------|-----------|-------------||
|--------------------------------|-----------|-------------||
|
|--------------------------------|-----------|-------------||
|--------------------------------|-----------|-------------||
|--------------------------------|------4----|-------------||
|--------------------------------|-2----4----|-2-2--2-2----||
|--2-----------------------------|-2----2----|-2-2--2-2----||
|--0-0-0-0-0-0-0-0-0-0-0-0-0-0-0-|-0---------|-0-0--0-0----||
|--------------------------------|-----------|-------------||


|--------------------------------------|
|--------------------------------------|
|------------------14------------------|
|---15---15---15--------15---14---15---|
|--------------------------------------|
|--------------------------------------|
|
|--------------------------------------|
|--------------------------------------|
|--------------------------------------|
|------------------15------------------|
|---17---17---17--------17---15---17---|
|--------------------------------------|
|
|--------------------------------------|
|--------------------------------------|
|--------------------------------------|
|-7------------------------------------|
|-5--5-5--5-5--5-5--5-5--5-5--5-5--5-5-|
|--------------------------------------|
|--------------------------------------|


|------------------------------------------|
|---------------------------------13-------|
|-------------14--------14---15------------|
|-(15)---15--------15----------------------|
|------------------------------------------|
|------------------------------------------|
|
|------------------------------------------|
|------------------------------------------|
|---------------------------------14-------|
|-------------15--------15---17------------|
|-(17)---17--------17----------------------|
|------------------------------------------|
|
|------------------------------------------|
|------------------------------------------|
|------------------------------------------|
|------------------------------------------|
|---5--5--5-5--5-5--5-5--5-5--5-5--5-5-5-5-|
|------------------------------------------|
|------------------------------------------|


|--------------------------------------|
|---------------------------------13---|
|--------14---14---15---14---15--------|
|---15---------------------------------|
|--------------------------------------|
|--------------------------------------|
|
|--------------------------------------|
|--------------------------------------|
|---------------------------------14---|
|--------15---15---17---15---17--------|
|---17---------------------------------|
|--------------------------------------|
|
|--------------------------------------|
|--------------------------------------|
|--------------------------------------|
|-7------------------------------------|
|-5--5-5--5-5--5-5--5-5--5-5--5-5--5-5-|
|--------------------------------------|
|--------------------------------------|


|---------------------------------------------|
|-18p13-17p13----------------13---------------|
|-------------15---14---15--------15---[14]---|
|---------------------------------------------|
|---------------------------------------------|
|---------------------------------------------|
|
|---------------------------------------------|
|---------------------------------------------|
|-19p14-17p14----------------14---------------|
|-------------17---15---17--------17---[15]---|
|---------------------------------------------|
|---------------------------------------------|
|
|---------------------------------------------|
|---------------------------------------------|
|---------------------------------------------|
|---------------------------------------------|
|--5--5--5--5--5-5--5-5--5-5--5-5--5-5---5--5-|
|---------------------------------------------|
|---------------------------------------------|


|-10p=8-----8-10h13p10p=8-10p=8-----8-10h13p10p=8-|-10p=8-----8-10h13p10p=8-10p=8-----8-10h13p10p=8-|
|-------10----------------------10----------------|-------10----------------------10----------------|
|-------------------------------------------------|-------------------------------------------------|
|-------------------------------------------------|-------------------------------------------------|
|-------------------------------------------------|-------------------------------------------------|
|-------------------------------------------------|-------------------------------------------------|
|
|-------------------------------------------------|-------------------------------------------------|
|-------------------------------------------------|-------------------------------------------------|
|-------------------------------------------------|-------------------------------------------------|
|-12p10----10-12h15p12p10-12p10----10-12h15p12p10-|-12p10----10-12h15p12p10-12p10----10-12h15p12p10-|
|-------12----------------------12----------------|-------12----------------------12----------------|
|-------------------------------------------------|-------------------------------------------------|
|
|-------------------------------------------------|-------------------------------------------------|
|-------------------------------------------------|-------------------------------------------------|
|-------------------------------------------------|-------------------------------------------------|
|-------------------------------------------------|-------------------------------------------------|
|--5----------------------------------------------|-------------------------------------------------|
|--3-----3--3--3--3--3--3--3--3--3--3--3--3--3--3-|--3--3--3--3--3--3--3--3--3--3--3--3--3--3--3--3-|
|-------------------------------------------------|-------------------------------------------------|


|----------------------|----------------------------|
|----------------------|----------------------------|
|-15-15--14-15b17r==14-|-15--15--14-[15]b17r==14----|
|----------------------|----------------------------|
|----------------------|----------------------------|
|----------------------|----------------------------|
|
|----------------------|----------------------------|
|----------------------|----------------------------|
|----------------------|----------------------------|
|-17-17--15-17b19r==15-|-17--17--15-[17]b19r==15----|
|----------------------|----------------------------|
|----------------------|----------------------------|
|
|----------------------|----------------------------|
|----------------------|----------------------------|
|--2-------------------|-(2)------------------------|
|--2-------------------|-(2)------------------------|
|--0-------------------|-(0)------------------------|
|----------------------|----------------------------|
|----------------------|----------------------------|


|-------------------------------------------|
|-15-15---(15)---13---15---15---(15)---13---|
|-------------------------------------------|
|-------------------------------------------|
|-------------------------------------------|
|-------------------------------------------|
|
|-------------------------------------------|
|-------------------------------------------|
|-14-14---(14)---14---14---14---(14)---14---|
|-------------------------------------------|
|-------------------------------------------|
|-------------------------------------------|
|
|-------------------------------------------|
|-------------------------------------------|
|-------------------------------------------|
|--7----------------------------------------|
|--5--5-5---5--5--5-5--5-5--5-5---5--5--5-5-|
|-------------------------------------------|
|-------------------------------------------|


|-------------------------------------------|
|-15---15---(15)---13---15---13--------13---|
|---------------------------------14--------|
|-------------------------------------------|
|-------------------------------------------|
|-------------------------------------------|
|
|-------------------------------------------|
|-------------------------------------------|
|-14---14---(14)---14---14---14--------14---|
|---------------------------------15--------|
|-------------------------------------------|
|-------------------------------------------|
|
|-------------------------------------------|
|-------------------------------------------|
|-------------------------------------------|
|-------------------------------------------|
|--5-5--5-5---5--5--5-5--5-5--5-5--5-5--5-5-|
|-------------------------------------------|
|-------------------------------------------|


|----------------------------------|---------------------13-------17-------|
|-13-------------------------------|------------13-------------------------|
|------------12s==14---------------|-(14)----------------------------------|
|----------------------------------|---------------------------------------|
|----------------------------------|---------------------------------------|
|----------------------------------|---------------------------------------|
|
|----------------------------------|---------------------------------------|
|----------------------------------|---------------------------------------|
|-14-------------------------------|------------------------------14-------|
|------------14s==15---------------|-(15)----------------15----------------|
|----------------------------------|------------15-------------------------|
|----------------------------------|---------------------------------------|
|
|----------------------------------|---------------------------------------|
|----------------------------------|---------------------------------------|
|----------------------------------|---------------------------------------|
|----------------------------------|---------------------------------------|
|--3-------------------------------|---------------------------------------|
|--1-1-1-1-1--1-1--1-1-1-1-1-1-1-1-|---1--1-1-1--1-1-1-1--1-1-1-1--1-1-1-1-|
|----------------------------------|---------------------------------------|


|-20-----20---17--------------------|------------------------------------------|
|----------------------20-----------|-----18---20b22-------20---18-------------|
|-----------------------------------|--------------------------------19---17---|
|-----------------------------------|------------------------------------------|
|-----------------------------------|------------------------------------------|
|-----------------------------------|------------------------------------------|
|
|-----------------------------------|------------------------------------------|
|-13-----13-------------------------|------------------------------------------|
|-------------14-------12-----------|------------------------------------------|
|-----------------------------------|-----15---17b19-------17---15-------------|
|-----------------------------------|--------------------------------17---15---|
|-----------------------------------|------------------------------------------|
|
|-----------------------------------|------------------------------------------|
|-----------------------------------|------------------------------------------|
|-----------------------------------|------------------------------------------|
|--5--------------------------------|------------------------------------------|
|--3-3-3--3-3--3-3-3-3--3-3-3-3-3-3-|-3-3--3-3--3----3-3-3--3-3--3-3--3-3--3-3-|
|-----------------------------------|------------------------------------------|
|-----------------------------------|------------------------------------------|


   T     T     T     T     T     T     T     T       T     T     T     T     T     T     T     T
|-17-13-17-13-17-13-20-13-17-13-17-13-17-13-20-13-|-17-13-17-13-17-13-20-13-17-13-17-13-17-13-20-13----||
|-------------------------------------------------|----------------------------------------------------||
|-------------------------------------------------|----------------------------------------------------||
|-------------------------------------------------|----------------------------------------------------||
|-------------------------------------------------|----------------------------------------------------||
|-------------------------------------------------|----------------------------------------------------||
|
|  T     T     T     T     T     T     T     T       T     T     T     T     T     T     T     T
|-------------------------------------------------|----------------------------------------------------||
|-18-15-18-15-18-15-22-15-18-15-18-15-18-15-22-15-|-18-15-18-15-18-15-22-15-18-15-18-15-18-15-22-15----||
|-------------------------------------------------|----------------------------------------------------||
|-------------------------------------------------|----------------------------------------------------||
|-------------------------------------------------|----------------------------------------------------||
|-------------------------------------------------|----------------------------------------------------||
|
|-------------------------------------------------|----------------------------------------------------||
|-------------------------------------------------|----------------------------------------------------||
|--3----------------------------------------------|--2-------------------------------------------------||
|--3----------------------------------------------|--2-------------------------------------------------||
|--1----------------------------------------------|--0-------------------------------------------------||
|-------------------------------------------------|----------------------------------------------------||
|-------------------------------------------------|----------------------------------------------------||


                                             ~~~~~            ~~
|-13-----13-----22p17-------------|-[17]--/[17]--20-17-20-22-----|
|-16b18--16b18--------18----------|--------------------------18--|
|------------------------19-------|------------------------------|
|---------------------------19-20-|------------------------------|
|---------------------------------|------------------------------|
|---------------------------------|------------------------------|
|
|                                            ~~~~~            ~~
|---------------------------------|------------------------------|
|---------------------------------|-[18]--/[18]--22-18-22-23-----|
|---------------------------------|--------------------------19--|
|---------------------------------|------------------------------|
|---------------------------20-22-|------------------------------|
|---------------------------------|------------------------------|
|
|---------------------------------|------------------------------|
|---------------------------------|------------------------------|
|--7------7------------5--------5-|---7------7-------------------|
|--7------7------------5--------5-|---7------7-------------------|
|--5------5------------3--------3-|---5------5-------------------|
|---------------------------------|------------------------------|
|---------------------------------|------------------------------|


|-18-17-15----------------------------------------|--------------||
|----------18-17-15-------------------------------|--------------||
|-------------------17-15-14----------------------|--------------||
|----------------------------17-15-14-------------|--------------||
|-------------------------------------17-15-14-15-|-[22]pb27r====||
|-------------------------------------------------|--------------||
|
|-15-13-12----------------------------------------|--------------||
|----------15-13-12-------------------------------|--------------||
|-------------------14-12-10----------------------|--------------||
|----------------------------14-12-10-------------|--------------||
|-------------------------------------14-12-10-12-|-[10]pb14r====||
|-------------------------------------------------|--------------||
|
|-------------------------------------------------|--------------||
|-------------------------------------------------|--------------||
|--------------------------------------------2----|--(2)---------||
|--5-----------5-----------------3-----------2----|--(2)---------||
|--5-----------5-----------------3-----------0----|--(0)---------||
|--3-----------3-----------------1----------------|--------------||
|-------------------------------------------------|--------------||


  Gtr III
|-------------------------------|---------------------------------|------------|
|-------------------------------|---------------------------------|------------|
|-------------------------------|---------------------------------|-2----------|
|-4-----------------------------|---------------------------------|-2------x-x-|
|-2-2-2-2-2-2-2-2-2-2-2-2-2-2-2-|-2-2-2-2-2-2-2-2-2-2-2-2-2-2-2-2-|-0------0-0-|
|-------------------------------|---------------------------------|------------|
|-------------------------------|---------------------------------|------------|


|----------------|-------------------------------|
|----------------|-------------------------------|
|-2--------------|-------------------------------|
|-2----x-x-x-x-x-|-------------------------------|
|-0----0-0-0-0-0-|-5-----------------------------|
|----------------|-3-3-3-3-3-3-3-3-3-3-3-3-3-3-3-|
|----------------|-------------------------------|


|---------------------------------|------|
|---------------------------------|------|
|---------------------------------|-4----|
|---------------------------------|-4----|
|---------------------------------|-2----|
|-3-3-3-3-3-3-3-3-3-3-3-3-3-3-3-3-|------|
|---------------------------------|------|


|---------------------||-------------------------------|
|---------------------||-------------------------------|
|----------------[2]--||-------------------------------|
|-2-------------------||-4-----------------------------|
|-0--0-0-0-0-0-0------||-2-2-2-2-2-2-2-2-2-2-2-2-2-2-2-|
|---------------------||-------------------------------|
|---------------------||-------------------------------|


|----------------------------------|
|----------------------------------|
|----------------------------------|
|----------------------------------|
|-2-2-2-2-2-2-2-2-2-2-2-2-2-2-2-2--|
|----------------------------------|
|----------------------------------|


|-------------------------------|---------------------------------|
|-------------------------------|---------------------------------|
|-------------------------------|---------------------------------|
|-2-----------------------------|---------------------------------|
|-0-0-0-0-0-0-0-0-0-0-0-0-0-0-0-|-0-0-0-0-0-0-0-0-0-0-0-0-0-0-0-0-|
|-------------------------------|---------------------------------|
|-------------------------------|---------------------------------|


|-------------------------------|
|-------------------------------|
|-------------------------------|
|-------------------------------|
|-5-----------------------------|
|-3-3-3-3-3-3-3-3-3-3-3-3-3-3-3-|
|-------------------------------|


|------------------------------|----------|------||
|------------------------------|----------|------||
|------------------------------|-4--------|-2----||
|-------------------------[5]--|-4--------|-2----||
|------------------------------|-2--------|-0----||
|-3-3-3-3-3-3-3-3-3-3-3-3------|----------|------||
|------------------------------|----------|------||


|-----------------|-----------------|----------|------------|-----------------|
|-----------------|-----------------|----------|------------|-----------------|
|-----------------|-----------------|-4--------|-(4)--------|-----------------|
|-----------------|-----------------|-4--------|-(4)--------|-----------------|
|-5-----5-----5---|-5-----5-----5---|-2--------|-(2)--------|-2-----2-----2---|
|-3-3-3-3-3-3-3-3-|-3-3-3-3-3-3-3-3-|----------|------------|-0-0-0-0-0-0-0-0-|
|-----------------|-----------------|----------|------------|-----------------|


|-----------------|----------|--------------||------|
|-----------------|----------|--------------||------|
|-----------------|-4--------|-2-2--2--2--2-||-7----|
|-----------------|-4--------|-2-2--2--2--2-||-7----|
|-2-----2-----2---|-2--------|-0-0--0--0--0-||-5----|
|-0-0-0-0-0-0-0-0-|----------|--------------||------|
|-----------------|----------|--------------||------|


|----------|----------|-------------------------|
|----------|----------|-------------------------|
|-2--------|-4--------|-------------------------|
|-2--------|-4--------|-----[4]-[5]-----[4]-[5]-|
|-0--------|-2--------|-2-2---------2-2---------|
|----------|----------|-------------------------|
|----------|----------|-------------------------|


|-------------------------------|--------------------------------|
|-------------------------------|--------------------------------|
|-------------------------------|--------------------------------|
|-7-----------------------------|-2------------------------------|
|-5-5-5-5-5-5-5-5-5-5-5-5-5-5-5-|-0-0-0-0-0-0-0-0-0-0-0-0-0-0-0--|
|-------------------------------|--------------------------------|
|-------------------------------|--------------------------------|


|-------------------------------|---------------------------------|
|-------------------------------|---------------------------------|
|-------------------------------|---------------------------------|
|-------------------------------|---------------------------------|
|-5-----------------------------|---------------------------------|
|-3-3-3-3-3-3-3-3-3-3-3-3-3-3-3-|-3-3-3-3-3-3-3-3-3-3-3-3-3-3-3-3-|
|-------------------------------|---------------------------------|


|-----------------|----------|------------------|------|
|-----------------|----------|------------------|------|
|-----------------|-2--------|-4-----4-----[4]--|------|
|-7-----7-----7---|-2--------|-4-----4----------|-5----|
|-5-5-5-5-5-5-5-5-|-0--------|-2-2-2-2-2-2------|-5----|
|-----------------|----------|------------------|-3----|
|-----------------|----------|------------------|------|


|-------------------------------|---------------------------------|
|-------------------------------|---------------------------------|
|-------------------------------|---------------------------------|
|-------------------------------|---------------------------------|
|-2-----------------------------|---------------------------------|
|-0-0-0-0-0-0-0-0-0-0-0-0-0-0-0-|-0-0-0-0-0-0-0-0-0-0-0-0-0-0-0-0-|
|-------------------------------|---------------------------------|


|----------|----------||----------|--------|
|----------|----------||----------|--------|
|-2--------|-2--------||----------|--------|
|-2--------|-2--------||-2--------|-(2)----|
|-0--------|-0--------||-2--------|-(2)----|
|----------|----------||-0--------|-(0)----|
|----------|----------||----------|--------|


|----------|------------|----------|--------|
|----------|------------|----------|--------|
|-2--------|-(2)--------|-6--------|-(6)----|
|-2--------|-(2)--------|-6--------|-(6)----|
|-0--------|-(0)--------|-4--------|-(4)----|
|----------|------------|----------|--------|
|----------|------------|----------|--------|


|----------|------------|-------------------------------|
|----------|------------|-------------------------------|
|-2--------|-(2)--------|-------------------------------|
|-2--------|-(2)--------|-6-----------------------------|
|-0--------|-(0)--------|-4-4-4-4-4-4-4-4-4-4-4-4-4-4-4-|
|----------|------------|-------------------------------|
|----------|------------|-------------------------------|


|---------------------------------|
|---------------------------------|
|---------------------------------|
|---------------------------------|
|-4-4-4-4-4-4-4-4-4-4-4-4-4-4-4-4-|
|---------------------------------|
|---------------------------------|


|-------------------------------|---------------------------------||
|-------------------------------|---------------------------------||
|-------------------------------|---------------------------------||
|-2-----------------------------|---------------------------------||
|-0-0-0-0-0-0-0-0-0-0-0-0-0-0-0-|-0-0-0-0-0-0-0-0-0-0-0-0-0-0-0-0-||
|-------------------------------|---------------------------------||
|-------------------------------|---------------------------------||


|----------|-----------------|----------|-------------------------|
|----------|-----------------|----------|-------------------------|
|-4--------|-----------------|-2--------|-------------------------|
|-4--------|-4-----4-----4---|-2--------|-------------------------|
|-2--------|-2-2-2-2-2-2-2-2-|-0--------|-0-0-0-0-0-0-0-0-0-0-0-0-|
|----------|-----------------|----------|-------------------------|
|----------|-----------------|----------|-------------------------|


  Gtr I
|----------|------------|----------|-----19--19--|
|----------|------------|----------|-------------|
|----------|------------|----------|-------------|
|----------|------------|----------|-------------|
|----------|------------|----------|-------------|
|----------|------------|----------|-------------|
|
| Gtr II
|----------|------------|----------|-------------|
|----------|------------|----------|------9---9--|
|----------|------------|----------|-------------|
|----------|------------|----------|-------------|
|----------|------------|----------|-------------|
|----------|------------|----------|-------------|
|
| Gtr III
|----------|------------|----------|-------------|
|----------|------------|----------|-------------|
|-4--------|-(4)--------|-2--------|-------------|
|-4--------|-(4)--------|-2--------|-------------|
|-2--------|-(2)--------|-0--------|-------------|
|----------|------------|----------|-------------|
|----------|------------|----------|-------------|


|-19------17-16-|-12--------|-12---14---16--|-14--------|
|---------------|-----------|---------------|-----------|
|---------------|-----------|---------------|-----------|
|---------------|-----------|---------------|-----------|
|---------------|-----------|---------------|-----------|
|---------------|-----------|---------------|-----------|
|
|---------------|-----------|---------------|-----------|
|--9------------|-----------|---------------|-----------|
|---------11--9-|-----------|-------8----9--|--8--------|
|---------------|-11--------|-11------------|-----------|
|---------------|-----------|---------------|-----------|
|---------------|-----------|---------------|-----------|
|
|---------------|-----------|---------------|-----------|
|---------------|-----------|---------------|-----------|
|---------------|--2--------|--6------------|--4--------|
|--2------------|--2--------|--6------------|--4--------|
|--2------------|--0--------|--4------------|--2--------|
|--0------------|-----------|---------------|-----------|
|---------------|-----------|---------------|-----------|


|-12---14---16--|-14---12---11--|-12-----------------------------|-------------|
|---------------|---------------|--------------------------------|-------------|
|---------------|---------------|--------------------------------|-------------|
|---------------|---------------|--------------------------------|-------------|
|---------------|---------------|--------------------------------|-------------|
|---------------|---------------|--------------------------------|-------------|
|
|---------------|---------------|--------------------------------|-------------|
|---------------|---------------|--------------------------------|-------------|
|-------8----9--|--8------------|--------------------------------|-------------|
|-11------------|------11----9--|--9-----------------------------|-------------|
|---------------|---------------|--------------------------------|-------------|
|---------------|---------------|--------------------------------|-------------|
|
|---------------|---------------|--------------------------------|-------------|
|---------------|---------------|--------------------------------|-------------|
|--2------------|---------------|--------------------------------|------4------|
|--2------------|---------------|--------------------------------|-2----4------|
|--0------------|---------------|--2-----------------------------|-2----2------|
|---------------|---------------|--0-0-0-0-0-0-0-0-0-0-0-0-0-0-0-|-0-----------|
|---------------|---------------|--------------------------------|-------------|


  Gtr III
|-------------||----------------|-----------------|----------------|
|-------------||----------------|-----------------|----------------|
|-------------||----------------|-----------------|----------------|
|-2-2--2-2----||----------------|-----------------|-7--------------|
|-2-2--2-2----||-5----------8-7-|---------5---5-7-|-5----------5-3-|
|-0-0--0-0----||-5----------6-5-|---------3-5-3-5-|------------3-1-|
|-------------||-3--3-3-3-3-----|-3-3-3-3---3-----|----3-3-3-3-----|


|-----------------|----------------|-----------------|----------------|
|-----------------|----------------|-----------------|----------------|
|-----------------|----------------|-----------------|----------------|
|-----------------|----------------|-----------------|-7--------------|
|---5-3---5---5-7-|-5----------8-7-|---------5---5-7-|-5--------------|
|-5-3-1-5-3-5-3-5-|-5----------6-5-|---------3-5-3-5-|----------------|
|-3-----3---3-----|-3--3-3-3-3-----|-3-3-3-3---3-----|----3-3-3-3-3-3-|


|--------------||----------|----------|----------|------|
|--------------||----------|----------|----------|------|
|--------------||----------|----------|----------|------|
|-8-8--7--7--7-||----------|-5--------|----------|------|
|-8-8--7--7--7-||-5--------|-5--------|-3--------|-5----|
|-6-6--5--5--5-||-5--------|-3--------|-3--------|-5----|
|--------------||-3--------|----------|-1--------|-3----|


|----------|----------|----------|------||
|----------|----------|----------|------||
|----------|----------|-3--------|-5----||
|----------|-5--------|-3--------|-5----||
|-5--------|-5--------|-1--------|-3----||
|-5--------|-3--------|----------|------||
|-3--------|----------|----------|------||


|----------|----------|----------|------|
|----------|----------|----------|------|
|----------|----------|----------|------|
|----------|-5--------|----------|------|
|-5--------|-5--------|-3--------|-5----|
|-5--------|-3--------|-3--------|-5----|
|-3--------|----------|-1--------|-3----|


|----------|----------|----------|------||
|----------|----------|----------|------||
|----------|----------|-3--------|-5----||
|----------|-5--------|-3--------|-5----||
|-5--------|-5--------|-1--------|-3----||
|-5--------|-3--------|----------|------||
|-3--------|----------|----------|------||


  Gtr I
|-17-17-15-17----------15-|-17-17-15-17----------15-|
|-------------18-15-18----|-------------18-15-18----|
|-------------------------|-------------------------|
|-------------------------|-------------------------|
|-------------------------|-------------------------|
|-------------------------|-------------------------|
|
| Gtr II
|-------------------------|-------------------------|
|-------------------------|-------------------------|
|-14-14-12-14----------12-|-14-14-12-14----------12-|
|-------------15-12-15----|-------------15-12-15----|
|-------------------------|-------------------------|
|-------------------------|-------------------------|
|
| Gtr III
|-------------------------|-------------------------|
|-------------------------|-------------------------|
|-------------------------|-------------------------|
|-------------------------|-------------------------|
|--5----------------------|-------------------------|
|--5----------------------|--------------------5--3-|
|--3-----3--3--3--3--3--3-|--3--3--3--3--3--3-------|


|-17-17-15----15-15-------|----------------------15-||
|----------18-------18-15-|-15-15----15-18-15-18----||
|-------------------------|-------17----------------||
|-------------------------|-------------------------||
|-------------------------|-------------------------||
|-------------------------|-------------------------||
|
|-------------------------|-------------------------||
|-------------------------|-------------------------||
|-14-14-12----12-12-------|----------------------12-||
|----------15-------15-12-|-12-12----12-15-12-15----||
|-------------------------|-------15----------------||
|-------------------------|-------------------------||
|
|-------------------------|-------------------------||
|-------------------------|-------------------------||
|-------------------------|-------------------------||
|-------------------------|-------------------------||
|--5----------------------|-------------------------||
|--5----------------------|-------------------------||
|--3-----3--3--3--3--3--3-|--3--3--3--3--8--3--8S10-||


|-17-17-15-17----------15-|-17-17-15-17----------15-|
|-------------18-15-18----|-------------18-15-18----|
|-------------------------|-------------------------|
|-------------------------|-------------------------|
|-------------------------|-------------------------|
|-------------------------|-------------------------|
|
|-------------------------|-------------------------|
|-------------------------|-------------------------|
|-14-14-12-14----------12-|-14-14-12-14----------12-|
|-------------15-12-15----|-------------15-12-15----|
|-------------------------|-------------------------|
|-------------------------|-------------------------|
|
|-------------------------|-------------------------|
|-------------------------|-------------------------|
|-------------------------|-------------------------|
|-------------------------|-------------------------|
|--5----------------------|-------------------------|
|--5----------------------|--------------------5--3-|
|--3-----3--3--3--3--3--3-|--3--3--3--3--3--3-------|


|-17-17-15----15-15-------|-------------------------||
|----------18-------18-15-|-------------15----15-18-||
|-------------------------|-17-17-14-17----17-------||
|-------------------------|-------------------------||
|-------------------------|-------------------------||
|-------------------------|-------------------------||
|
|-------------------------|-------------------------||
|-------------------------|-------------------------||
|-14-14-12----12-12-------|-------------------------||
|----------15-------15-12-|-------------12----12-15-||
|-------------------------|-15-15-12-15----15-------||
|-------------------------|-------------------------||
|
|-------------------------|-------------------------||
|-------------------------|-------------------------||
|-------------------------|-------------------------||
|-------------------------|-------------------------||
|--5----------------------|-------------------------||
|--5----------------------|-------------------------||
|--3-----3--3--3--3--3--3-|--3--8S=6--3--8--3--8S10-||


|-22-22-20----------------|-22-22-20----------------|
|----------22-18----18-22-|----------22-18----18-22-|
|----------------19-------|----------------19-------|
|-------------------------|-------------------------|
|-------------------------|-------------------------|
|-------------------------|-------------------------|
|
|-------------------------|-------------------------|
|-------------------------|-------------------------|
|-19-19-17----------------|-19-19-17----------------|
|----------19-15----15-19-|----------19-15----15-19-|
|----------------17-------|----------------17-------|
|-------------------------|-------------------------|
|
|-------------------------|-------------------------|
|-------------------------|-------------------------|
|-------------------------|-------------------------|
|-------------------------|-------------------------|
|--5----------------------|-------------------------|
|--5----------------------|--------------------5--3-|
|--3-----3--3--3--3--3--3-|--3--3--3--3--3--3-------|


|-22-22-20----20-20-------|----------------------20-||
|----------22-------22-20-|-22-22-20----20-20-22----||
|-------------------------|----------22-------------||
|-------------------------|-------------------------||
|-------------------------|-------------------------||
|-------------------------|-------------------------||
|
|-------------------------|-------------------------||
|-------------------------|-------------------------||
|-19-19-17----17-17-------|----------------------17-||
|----------19-------19-17-|-19-19-17----17-17-19----||
|-------------------------|----------20-------------||
|-------------------------|-------------------------||
|
|-------------------------|-------------------------||
|-------------------------|-------------------------||
|-------------------------|-------------------------||
|-------------------------|-------------------------||
|--5----------------------|-------------------------||
|--5----------------------|-------------------------||
|--3-----3--3--3--3--3--3-|--3--3--3--3--8--3--8S10-||


|-22-22-20----------------|-22-22-20----------------|
|----------22-18----18-22-|----------22-18----18-22-|
|----------------19-------|----------------19-------|
|-------------------------|-------------------------|
|-------------------------|-------------------------|
|-------------------------|-------------------------|
|
|-------------------------|-------------------------|
|-------------------------|-------------------------|
|-19-19-17----------------|-19-19-17----------------|
|----------19-15----15-19-|----------19-15----15-19-|
|----------------17-------|----------------17-------|
|-------------------------|-------------------------|
|
|-------------------------|-------------------------|
|-------------------------|-------------------------|
|-------------------------|-------------------------|
|-------------------------|-------------------------|
|--5----------------------|-------------------------|
|--5----------------------|--------------------5--3-|
|--3-----3--3--3--3--3--3-|--3--3--3--3--3--3-------|


|-22-22-20----20-20-------|----------------------20-||
|----------22-------22-20-|-22-22-20----20-20-22----||
|-------------------------|----------22-------------||
|-------------------------|-------------------------||
|-------------------------|-------------------------||
|-------------------------|-------------------------||
|
|-------------------------|-------------------------||
|-------------------------|-------------------------||
|-19-19-17----17-17-------|----------------------17-||
|----------19-------19-17-|-19-19-17----17-17-19----||
|-------------------------|----------20-------------||
|-------------------------|-------------------------||
|
|-------------------------|-------------------------||
|-------------------------|-------------------------||
|-------------------------|-------------------------||
|-------------------------|-------------------------||
|--5----------------------|-------------------------||
|--5----------------------|-------------------------||
|--3-----3--3--3--3--3--3-|--3--8S=6--3--8--3--8S10-||


  Gtr III
|--------------|----------------|----------------|----------||
|--------------|----------------|----------------|----------||
|---3--3--3--3-|--3-------------|-2--------------|-2--------||
|---3--3--3--3-|--3-------------|-2--------------|-2--------||
|---1--1--1--1-|--1-------------|-0--0-0-0-0-0-0-|-0--------||
|-5------------|-----8-8-5-8S10-|----------------|----------||
|-3------------|-----6-6-3-6S=8-|----------------|----------||


  Gtr I
|-14-12-------------------------------------------|---------------------------------7-9-|
|-------15-14-12----------------------------------|--------------------------7-8-10-----|
|----------------14-12-11-------------------------|----------------------7-9------------|
|-------------------------14-12-11----------------|---------------7-9-11----------------|
|----------------------------------14-12-10-------|--------7-9-10-----------------------|
|-------------------------------------------14-12-|-7-9-10------------------------------|
|
| Gtr III
|-------------------------------------------------|-------------------------------------|
|-------------------------------------------------|-------------------------------------|
|-------------------------------------------------|-------------------------------------|
|--4----------------------------------------------|-------------------------------------|
|--2-----2--2--2--2--2--2--2--2--2--2--2--2--2--2-|-2-2--2-2-2--2-2-2--2-2-2-2-2--2-2-2-|
|-------------------------------------------------|-------------------------------------|
|-------------------------------------------------|-------------------------------------|


|-9p5-------[5]-9p5---------------|-21p17----------17-21p17---------------------|
|-----7-5-7---------7-5-7s10-7s10-|-------19-17-19----------19-17-14s17-14s17---|
|---------------------------------|---------------------------------------------|
|---------------------------------|---------------------------------------------|
|---------------------------------|---------------------------------------------|
|---------------------------------|---------------------------------------------|
|
|---------------------------------|---------------------------------------------|
|---------------------------------|---------------------------------------------|
|-2-------------------------------|--2------------------------------------------|
|-2-------------------------------|--2------------------------------------------|
|-0-------------------------------|--0------------------------------------------|
|---------------------------------|---------------------------------------------|
|---------------------------------|---------------------------------------------|


|-------------------------------------------------|
|-12p10----10-12h15p12----<15>-<15>-<15>-<15>-12-15-[12]-[15]-|
|-------12-------------14-------------------------|
|-------------------------------------------------------------|
|-------------------------------------------------------------|
|-------------------------------------------------------------|
|
|-------------------------------------------------------------|
|-------------------------------------------------------------|
|-------------------------------------------------------------|
|-------------------------------------------------------------|
|--5----------------------------------------------------------|
|--3-----3--3--3--3--3--3---3----3----3----3---3--3---3----3--|
|-------------------------------------------------------------|


|-19p17----17-19h22p19-------------------------|
|-------20-------------22-18pb20r==============|
|-------------------------19pb21r==============|
|----------------------------------------------|
|----------------------------------------------|
|----------------------------------------------|
|
|----------------------------------------------|
|----------------------------------------------|
|----------------------------------------------|
|----------------------------------------------|
|----------------------------------------------|
|--3--3--3--3--3--3--3--3--3-----3-3-3-3-3-3-3-|
|----------------------------------------------|


  Gtr I
   T       T       T       T       T       T       T       T
|-14-10-7-14-10-7-15-10-7-15-10-7-14-10-7-14-10-7-12-10-7-12-10-7-|
|-----------------------------------------------------------------|
|-----------------------------------------------------------------|
|-----------------------------------------------------------------|
|-----------------------------------------------------------------|
|-----------------------------------------------------------------|
|
| Gtr II
|  T       T       T       T       T       T       T       T
|-----------------------------------------------------------------|
|-----------------------------------------------------------------|
|-11--7-4-11--7-4-12--7-4-12--7-4-11--7-4-11--7-4--9--7-4--9--7-4-|
|-----------------------------------------------------------------|
|-----------------------------------------------------------------|
|-----------------------------------------------------------------|
|
| Gtr III
|-----------------------------------------------------------------|
|-----------------------------------------------------------------|
|--4--------------------------------------------------------------|
|--4--------------------------------------------------------------|
|--2--------------------------------------------------------------|
|-----------------------------------------------------------------|
|-----------------------------------------------------------------|


   T      T      T      T      T      T      T      T
|-12-9-5-12-9-5-14-9-5-14-9-5-12-9-5-12-9-5-10-9-5-10-9-5--||
|----------------------------------------------------------||
|----------------------------------------------------------||
|----------------------------------------------------------||
|----------------------------------------------------------||
|----------------------------------------------------------||
|
|  T      T      T      T      T      T      T      T
|----------------------------------------------------------||
|----------------------------------------------------------||
|--9-6-2--9-6-2-11-6-2-11-6-2--9-6-2--9-6-2--7-6-2--7-6-2--||
|----------------------------------------------------------||
|----------------------------------------------------------||
|----------------------------------------------------------||
|
|----------------------------------------------------------||
|----------------------------------------------------------||
|--2-------------------------------------------------------||
|--2-------------------------------------------------------||
|--0-------------------------------------------------------||
|----------------------------------------------------------||
|----------------------------------------------------------||


|-14---------12--------------------|-12--------------------------------------|
|-------------------------15-------|------15---12------------------12---15---|
|----------------------------------|----------------14---11---14-------------|
|----------------------------------|-----------------------------------------|
|----------------------------------|-----------------------------------------|
|----------------------------------|-----------------------------------------|
|
|----------------------------------|-----------------------------------------|
|----------------------------------|-----------------------------------------|
|-11----------9--------------------|--9--------------------------------------|
|-------------------------12-------|------12----9-------------------9---12---|
|----------------------------------|----------------12----9---12-------------|
|----------------------------------|-----------------------------------------|
|
|----------------------------------|-----------------------------------------|
|----------------------------------|-----------------------------------------|
|----------------------------------|-----------------------------------------|
|--4-------------------------------|-----------------------------------------|
|--2-2-2-2-2--2-2-2-2-2-2--2-2-2-2-|--2-2--2-2--2-2--2-2--2-2--2-2--2-2--2-2-|
|----------------------------------|-----------------------------------------|
|----------------------------------|-----------------------------------------|


|-12S14-------17-----------19-------|-17---14-----------------14--------------||
|-----------------------------------|-----------15---17------------[17]-------||
|-----------------------------------|-----------------------------------------||
|-----------------------------------|-----------------------------------------||
|-----------------------------------|-----------------------------------------||
|-----------------------------------|-----------------------------------------||
|
|-----------------------------------|-----------------------------------------||
|-----------------------------------|-----------------------------------------||
|--9S11-------14-----------16-------|-14---11-----------------11---[14]-------||
|-----------------------------------|-----------12---14-----------------------||
|-----------------------------------|-----------------------------------------||
|-----------------------------------|-----------------------------------------||
|
|-----------------------------------|-----------------------------------------||
|-----------------------------------|-----------------------------------------||
|-----------------------------------|-----------------------------------------||
|--2--------------------------------|-----------------------------------------||
|--0--0-0-0-0--0-0-0-0-0-0--0-0-0-0-|--0-0--0-0--0-0--0-0-0-0--0-0---0--0-0-0-||
|-----------------------------------|-----------------------------------------||
|-----------------------------------|-----------------------------------------||


  Gtr I
|-14p10----------------10-12-10-12-14-17-14----14-|
|-------12----------12----------------------17----|
|----------11----11-------------------------------|
|-------------------------------------------------|
|-------------14----------------------------------|
|-------------------------------------------------|
|
| Gtr III
|-------------------------------------------------|
|-------------------------------------------------|
|-------------------------------------------------|
|-------------------------------------------------|
|-------------------------------------------------|
|--3-----3--3--3--3--3--3--3--3--3--3--3--3--3--3-|
|-------------------------------------------------|


|-14-14------------------------------------------|
|-------17-15-17-15------------------------------|
|-------------------16-14-16-14-------[16]-------|
|-------------------------------16-14------------|
|------------------------------------------------|
|------------------------------------------------|
|
|------------------------------------------------|
|------------------------------------------------|
|------------------------------------------------|
|------------------------------------------------|
|------------------------------------------------|
|--3--3--3--3--3--3--3--3--3--3--3--3---3--3-3-3-|
|------------------------------------------------|


  Gtr I
   T        T        T        T        T        T        T        T
|-19-14-10-19-14-10-19-14-10-19-14-10-19-14-10-19-14-10-19-14-10-19-14-10-|
|-------------------------------------------------------------------------|
|-------------------------------------------------------------------------|
|-------------------------------------------------------------------------|
|-------------------------------------------------------------------------|
|-------------------------------------------------------------------------|
|
| Gtr II
|  T        T        T        T        T        T        T        T
|-------------------------------------------------------------------------|
|-------------------------------------------------------------------------|
|-16-11--7-16-11--7-16-11--7-16-11--7-16-11--7-16-11--7-16-11--7-16-11--7-|
|-------------------------------------------------------------------------|
|-------------------------------------------------------------------------|
|-------------------------------------------------------------------------|
|
| Gtr III
|-------------------------------------------------------------------------|
|-------------------------------------------------------------------------|
|--4----------------------------------------------------------------------|
|--4----------------------------------------------------------------------|
|--2----------------------------------------------------------------------|
|-------------------------------------------------------------------------|
|-------------------------------------------------------------------------|


   T        T        T        T
|-21-12-17-21-12-17-21-12-17-21-12-17-21b26----||
|----------------------------------------------||
|----------------------------------------------||
|----------------------------------------------||
|----------------------------------------------||
|----------------------------------------------||
|
|  T        T        T        T
|-------------------------------------18b22----||
|----------------------------------------------||
|-18--9-14-18--9-14-18--9-14-18--9-14----------||
|----------------------------------------------||
|----------------------------------------------||
|----------------------------------------------||
|
|----------------------------------------------||
|----------------------------------------------||
|--2-------------------------------------------||
|--2-------------------------------------------||
|--0-------------------------------------------||
|----------------------------------------------||
|----------------------------------------------||


|-------------------------|-15-14-15-17b19----17--|
|-------15-------17-------|-----------------------|
|-14-14----14-14----14-14-|-----------------------|
|-------------------------|-----------------------|
|-------------------------|-----------------------|
|-------------------------|-----------------------|
|
|-------------------------|-----------------------|
|-------------------------|-17-15-17-19b20----19--|
|-------16-------18-------|-----------------------|
|-16-16----16-16----16-16-|-----------------------|
|-------------------------|-----------------------|
|-------------------------|-----------------------|
|
|-------------------------|-----------------------|
|-------------------------|-----------------------|
|-------------------------|-----------------------|
|--5-----------5----------|--5-------------5------|
|--5-----------5----------|--5-------------5------|
|--3-----------3----------|--3-------------3------|
|-------------------------|-----------------------|


   T        T          T          T          T          T          T          T
|-22-17-14-22-17---14-22-17---14-22-17---14-22-17---14-22-17---14-22-17---14-22-17---14-|
|---------------------------------------------------------------------------------------|
|---------------------------------------------------------------------------------------|
|---------------------------------------------------------------------------------------|
|---------------------------------------------------------------------------------------|
|---------------------------------------------------------------------------------------|
|
|  T        T          T          T          T          T          T          T
|---------------------------------------------------------------------------------------|
|---------------------------------------------------------------------------------------|
|-19-14-11-19-14---11-19-14---11-19-14---11-19-14---11-19-14---11-19-14---11-19-14---11-|
|---------------------------------------------------------------------------------------|
|---------------------------------------------------------------------------------------|
|---------------------------------------------------------------------------------------|
|
|---------------------------------------------------------------------------------------|
|---------------------------------------------------------------------------------------|
|---------------------------------------------------------------------------------------|
|--7------------------------------------------------------------------------------------|
|--5--------5----5-----5----5-----5----5-----5----5-----5----5-----5----5-----5----5----|
|---------------------------------------------------------------------------------------|
|---------------------------------------------------------------------------------------|


   T        T          T          T          T          T          T          T
|-21-17-12-21-17---12-21-17---12-21-17---12-21-17---12-21-17---12-21-17---12-21-17---12---||
|-----------------------------------------------------------------------------------------||
|-----------------------------------------------------------------------------------------||
|-----------------------------------------------------------------------------------------||
|-----------------------------------------------------------------------------------------||
|-----------------------------------------------------------------------------------------||
|
|  T        T          T          T          T          T          T          T
|-----------------------------------------------------------------------------------------||
|-----------------------------------------------------------------------------------------||
|-18-14--9-18-14----9-18-14----9-18-14----9-18-14----9-18-14----9-18-14----9-18-14----9---||
|-----------------------------------------------------------------------------------------||
|-----------------------------------------------------------------------------------------||
|-----------------------------------------------------------------------------------------||
|
|-----------------------------------------------------------------------------------------||
|-----------------------------------------------------------------------------------------||
|-----------------------------------------------------------------------------------------||
|--2--------------------------------------------------------------------------------------||
|--0--------0----0-----0----0-----0----0-----0----0-----0----0-----0----0-----0----0------||
|-----------------------------------------------------------------------------------------||
|-----------------------------------------------------------------------------------------||


  Gtr IV
|-17s14----14-------------9s5-------------|------------10s9-10s9s5-9-5-[5]--||
|-------17----17S14-12s17-----7s5---------|---------------------------------||
|---------------------------------4s6-----|-------6s11----------------------||
|-------------------------------------[4]-|-2s4-7---------------------------||
|-----------------------------------------|---------------------------------||
|-----------------------------------------|---------------------------------||
|
|-----------------------------------------|---------------------------------||
|-----------------------------------------|---------------------------------||
|-----------------------------------------|---------------------------------||
|-----------------------------------------|---------------------------------||
|-----------------------------------------|---------------------------------||
|-----------------------------------------|---------------------------------||
|
|-----------------------------------------|---------------------------------||
|-----------------------------------------|---------------------------------||
|-----------------------------------------|---------------------------------||
|--2----------------------2---------------|-2------------------2------------||
|--2----------------------2---------------|-2------------------2------------||
|--0----------------------0---------------|-0------------------0------------||
|-----------------------------------------|---------------------------------||


  Gtr I
                                                             ~~~~~~  ~~~~~~  ~~~~~~~~~~~~~~~~~~~
|---------------------------------------------------------|----------------------------------------|
|-19pb20-19pb20-19pb20-17pb19-19pb20-19pb20-19pb20-17b19--|-15pb17--15pb17--15pb17-14pb15-14b15----|
|---------------------------------------------------------|----------------------------------------|
|---------------------------------------------------------|----------------------------------------|
|---------------------------------------------------------|----------------------------------------|
|---------------------------------------------------------|----------------------------------------|
|
|                                                            ~~~~~~  ~~~~~~  ~~~~~~~~~~~~~~~~~~~
|---------------------------------------------------------|----------------------------------------|
|---------------------------------------------------------|----------------------------------------|
|-19pb21-19pb21-19pb21-18pb19-19pb21-19pb21-19pb21-18pb19-|-16pb18--16pb18--16pb18-16pb18-12b13----|
|---------------------------------------------------------|----------------------------------------|
|---------------------------------------------------------|----------------------------------------|
|---------------------------------------------------------|----------------------------------------|
|
|---------------------------------------------------------|----------------------------------------|
|---------------------------------------------------------|----------------------------------------|
|---------------------------------------------------------|----------------------------------------|
|--4------------------------------------------------------|--2-------2-------2------2------2-------|
|--2------2------2------2------2------2------2------2-----|--0-------0-------0------0------0-------|
|---------------------------------------------------------|----------------------------------------|
|---------------------------------------------------------|----------------------------------------|


               ~~~~
|-/17---15---[14]--|-15-14--15--17---|
|------------------|-----------------|
|------------------|-----------------|
|------------------|-----------------|
|------------------|-----------------|
|------------------|-----------------|
|
|              ~~~~
|------------------|-----------------|
|-/19---17---[15]--|-17-15--17--19---|
|------------------|-----------------|
|------------------|-----------------|
|------------------|-----------------|
|------------------|-----------------|
|
|------------------|-----------------|
|------------------|-----------------|
|---7--------------|--2--------------|
|---7--------------|--2--------------|
|---5--------------|--0--------------|
|------------------|-----------------|
|------------------|-----------------|


   T        T        T        T        T        T        T        T
|-22-15-19-22-15-19-22-15-19-22-15-19-22-15-19-22-15-19-22-15-19-24-19-15-|
|-------------------------------------------------------------------------|
|-------------------------------------------------------------------------|
|-------------------------------------------------------------------------|
|-------------------------------------------------------------------------|
|-------------------------------------------------------------------------|
|
|  T        T        T        T        T        T        T        T
|-------------------------------------------------------------------------|
|-------------------------------------------------------------------------|
|-19-12-16-19-12-16-19-12-16-19-12-16-19-12-16-19-12-16-19-12-16-21-16-12-|
|-------------------------------------------------------------------------|
|-------------------------------------------------------------------------|
|-------------------------------------------------------------------------|
|
|-------------------------------------------------------------------------|
|-------------------------------------------------------------------------|
|--4----------------------------------------------------------------------|
|--4----------------------------------------------------------------------|
|--2----------------------------------------------------------------------|
|-------------------------------------------------------------------------|
|-------------------------------------------------------------------------|


|-17-14----------------------------14-15-19-22--|
|-------15----------------------15--------------|
|----------14----------------14-----------------|
|-------------16----------16--------------------|
|----------------17p12-17-----------------------|
|-----------------------------------------------|
|
|-14-10----------------------------10-12-15-19--|
|-------10----------------------10--------------|
|----------11----------------11-----------------|
|-------------12----------12--------------------|
|----------------14p=9-14-----------------------|
|-----------------------------------------------|
|
|-----------------------------------------------|
|-----------------------------------------------|
|-----------------------------------------------|
|--5--------------------------------------------|
|--5--------------------------------------------|
|--3--------------------------------------------|
|-----------------------------------------------|


|-------14h17-------14h17-------14h17-------14h17-|
|-------------------------------------------------|
|-14-14-------14-14-------14-14-------14-14-------|
|-------------------------------------------------|
|-------------------------------------------------|
|-------------------------------------------------|
|
|-------------------------------------------------|
|-------15h19-------15h19-------15h19-------15h19-|
|-------------------------------------------------|
|-16-16-------16-16-------16-16-------16-16-------|
|-------------------------------------------------|
|-------------------------------------------------|
|
|-------------------------------------------------|
|-------------------------------------------------|
|--7----------------------------------------------|
|--7----------------------------------------------|
|--5----------------------------------------------|
|-------------------------------------------------|
|-------------------------------------------------|


|------------------------------------||
|-17p14-19p14-20p14-19p14-17b19r=====||
|------------------------------------||
|------------------------------------||
|------------------------------------||
|------------------------------------||
|
|------------------------------------||
|------------------------------------||
|-18p14-19p14-21p14-19p14-18pb19r====||
|------------------------------------||
|------------------------------------||
|------------------------------------||
|
|------------------------------------||
|------------------------------------||
|--2---------------------------------||
|--2---------------------------------||
|--0---------------------------------||
|------------------------------------||
|------------------------------------||


|---7-10p7-----9-12p=9----10-14p10----12-15p12-|
|-8--------10----------12----------14----------|
|----------------------------------------------|
|----------------------------------------------|
|----------------------------------------------|
|----------------------------------------------|
|
|----------------------------------------------|
|---8-12p8----10-14p10----12-15p12----14-17p14-|
|-9--------11----------12----------14----------|
|----------------------------------------------|
|----------------------------------------------|
|----------------------------------------------|
|
|----------------------------------------------|
|----------------------------------------------|
|----------------------------------------------|
|-5--------------------------------------------|
|-5--------------------------------------------|
|-3--------------------------------------------|
|----------------------------------------------|


   T      T     T     T     T     T     T     T     T     T     T     T     T     T     T     T
|-19--17-19-17-21-17-21-17-22-17-22-17-21-17-21-17-19-17-19-17-21-17-21-17-22-17-22-17-21-17-21-17--||
|---------------------------------------------------------------------------------------------------||
|---------------------------------------------------------------------------------------------------||
|---------------------------------------------------------------------------------------------------||
|---------------------------------------------------------------------------------------------------||
|---------------------------------------------------------------------------------------------------||
|
|  T      T     T     T     T     T     T     T     T     T     T     T     T     T     T     T
|---------------------------------------------------------------------------------------------------||
|---------------------------------------------------------------------------------------------------||
|-16--14-16-14-18-14-18-14-19-14-19-14-18-14-18-14-16-14-16-14-18-14-18-14-19-14-19-14-18-14-18-14--||
|---------------------------------------------------------------------------------------------------||
|---------------------------------------------------------------------------------------------------||
|---------------------------------------------------------------------------------------------------||
|
|---------------------------------------------------------------------------------------------------||
|---------------------------------------------------------------------------------------------------||
|---------------------------------------------------------------------------------------------------||
|-(5)-----------------------------------------------------------------------------------------------||
|-(5)-----------------------------------------------------------------------------------------------||
|-(3)-----------------------------------------------------------------------------------------------||
|---------------------------------------------------------------------------------------------------||


|-21b22---21---17--|-19-21--19--17---|
|------------------|-----------------|
|------------------|-----------------|
|------------------|-----------------|
|------------------|-----------------|
|------------------|-----------------|
|
|------------------|-----------------|
|-20b22---22---19--|-21-22--21--19---|
|------------------|-----------------|
|------------------|-----------------|
|------------------|-----------------|
|------------------|-----------------|
|
|------------------|-----------------|
|------------------|-----------------|
|--7---------------|--2--------------|
|--7---------------|--2--------------|
|--5---------------|--0--------------|
|------------------|-----------------|
|------------------|-----------------|


|-17-15--14---------|----------------------|
|------------17--15-|-(15)-17-17b19r==15---|
|-------------------|----------------------|
|-------------------|----------------------|
|-------------------|----------------------|
|-------------------|----------------------|
|
|-------------------|----------------------|
|-------------------|----------------------|
|-14-12--11---------|----------------------|
|------------14--12-|-(12)-14-14b16r==12---|
|-------------------|----------------------|
|-------------------|----------------------|
|
|-------------------|----------------------|
|-------------------|----------------------|
|--4----------------|----------------------|
|--4----------------|---5------------------|
|--2----------------|---5------------------|
|-------------------|---3------------------|
|-------------------|----------------------|


|-----------------------------------------------------------|
|-----------------------------------------------------------|
|-12-12-12-12-[14][16][14][16]-12-12-12-12-[14][16][14][16]-|
|-----------------------------------------------------------|
|-----------------------------------------------------------|
|-----------------------------------------------------------|
|
|-----------------------------------------------------------|
|-----------------------------------------------------------|
|-----------------------------------------------------------|
|-14-14-14-14--16h=17p=16h=17--14-14-14-14--16h=17p=16h=17--|
|-----------------------------------------------------------|
|-----------------------------------------------------------|
|
|-----------------------------------------------------------|
|-----------------------------------------------------------|
|-----------------------------------------------------------|
|--2--------------------------------------------------------|
|--2--------------------------------------------------------|
|--0--------------------------------------------------------|
|-----------------------------------------------------------|


   T      T     T     T     T     T     T     T     T     T     T     T     T     T     T     T
|-12--10-12-10-14-10-14-10-15-10-15-10-19-10-19-10-12-10-12-10-14-10-14-10-15-10-15-10-19-10-19-10--|
|---------------------------------------------------------------------------------------------------|
|---------------------------------------------------------------------------------------------------|
|---------------------------------------------------------------------------------------------------|
|---------------------------------------------------------------------------------------------------|
|---------------------------------------------------------------------------------------------------|
|
|  T      T     T     T     T     T     T     T     T     T     T     T     T     T     T     T
|---------------------------------------------------------------------------------------------------|
|---------------------------------------------------------------------------------------------------|
|--9---7--9--7-11--7-11--7-12--7-12--7-16--7-16--7--9--7--9--7-11--7-11--7-12--7-12--7-16--7-16--7--|
|---------------------------------------------------------------------------------------------------|
|---------------------------------------------------------------------------------------------------|
|---------------------------------------------------------------------------------------------------|
|
|---------------------------------------------------------------------------------------------------|
|---------------------------------------------------------------------------------------------------|
|---------------------------------------------------------------------------------------------------|
|-(2)-----------------------------------------------------------------------------------------------|
|-(2)-----------------------------------------------------------------------------------------------|
|-(0)-----------------------------------------------------------------------------------------------|
|---------------------------------------------------------------------------------------------------|


|-------------------------------------------------|
|----------------------------------------------12-|
|-------------------------------------11-12-14----|
|-------------------11-12----11-12-14-------------|
|----------10-12-14-------14----------------------|
|-10-12-14----------------------------------------|
|
|-------------------------------------------------|
|--------------------------------------------7--8-|
|--------------------------------------7--9-------|
|--------------------7--9-----7--9-11-------------|
|-----------7--9-10-------10----------------------|
|--7--9-10----------------------------------------|
|
|-------------------------------------------------|
|-------------------------------------------------|
|--2----------------------------------------------|
|--2----------------------------------------------|
|--0----------------------------------------------|
|-------------------------------------------------|
|-------------------------------------------------|


                      ~~~~~
|--7b9---9b10-10pb12-14b16----||
|-----------------------------||
|-----------------------------||
|-----------------------------||
|-----------------------------||
|-----------------------------||
|
|                     ~~~~~
|-----------------------------||
|--9b10-10b12-12b14--16b17----||
|-----------------------------||
|-----------------------------||
|-----------------------------||
|-----------------------------||
|
|-----------------------------||
|-----------------------------||
|-(2)-------------------------||
|-(2)-------------------------||
|-(0)-------------------------||
|-----------------------------||
|-----------------------------||


  Gtr III
|----------|----------|----------|------|
|----------|----------|----------|------|
|-9--------|-4--------|-6--------|-2----|
|-9--------|-4--------|-6--------|-2----|
|-7--------|-2--------|-4--------|-0----|
|----------|----------|----------|------|
|----------|----------|----------|------|


|----------|----------|----------|--------|
|----------|----------|----------|--------|
|-9--------|-4--------|-2--------|-(2)----|
|-9--------|-4--------|-2--------|-(2)----|
|-7--------|-2--------|-0--------|-(0)----|
|----------|----------|----------|--------|
|----------|----------|----------|--------|


|----------|----------|----------|---------------------|
|----------|----------|----------|---------------------|
|-9--------|-4--------|-6--------|---------------------|
|-9--------|-4--------|-6--------|---------------------|
|-7--------|-2--------|-4--------|-0-0-0-0-0-0-0-0-0-0-|
|----------|----------|----------|---------------------|
|----------|----------|----------|---------------------|


|----------|----------|---------------------|---------------------||
|----------|----------|---------------------|---------------------||
|-9--------|-4--------|---------------------|---------------------||
|-9--------|-4--------|---------------------|---------------------||
|-7--------|-2--------|-0-0-0-0-0-0-0-0-0-0-|-0-0-0-0-0-0-0-0-0-0-||
|----------|----------|---------------------|---------------------||
|----------|----------|---------------------|---------------------||


  Gtr I
|-------------------------------------------------|-------------------16-17-19-17-16-------16-------|
|-------------------------14----------------------|----------16-17-19----------------19-17----19-17-|
|-13----13-14-16-13-14-16----16-14-13----14-------|-18-16-18----------------------------------------|
|----14-------------------------------16----16-13-|-------------------------------------------------|
|-------------------------------------------------|-------------------------------------------------|
|-------------------------------------------------|-------------------------------------------------|
|
| Gtr II
|-------------------------------------------------|-------------------------------------------------|
|-------------------------------------------------|-------------------17-19-21-19-17-------17-------|
|-------------13-------13-14-13-------------------|----------16-18-20----------------20-18----20-18-|
|-14----14-16----14-16----------16-14-13-16-13----|-19-18-19----------------------------------------|
|----16----------------------------------------14-|-------------------------------------------------|
|-------------------------------------------------|-------------------------------------------------|
|
| Gtr III
|-------------------------------------------------|-------------------------------------------------|
|-------------------------------------------------|-------------------------------------------------|
|-------------------------------------------------|--2----------------------------------------------|
|--2----------------------------------------------|--2----------------------------------------------|
|--2----------------------------------------------|--0----------------------------------------------|
|--0----------------------------------------------|-------------------------------------------------|
|-------------------------------------------------|-------------------------------------------------|


   ~~                                                           ~~~~
|---------------------------------------|-------------------------------------------|
|---------------------------------------|---------------------[17]------------------|
|-----------------[13]---16---13--------|-13---16---13---16-------------------------|
|-14---------16--------------------16---|-------------------------------------------|
|---------------------------------------|-------------------------------------------|
|---------------------------------------|-------------------------------------------|
|
|  ~~                                                           ~~~~
|---------------------------------------|-------------------------------------------|
|---------------------------------------|-------------------------------------------|
|---------------------------------------|---------------------[16]------------------|
|------------------14----18---14--------|-14---18---14---18-------------------------|
|-16---------18--------------------18---|-------------------------------------------|
|---------------------------------------|-------------------------------------------|
|
|---------------------------------------|-------------------------------------------|
|---------------------------------------|-------------------------------------------|
|---------------------------------------|-------------------------------------------|
|---------------------------------------|-------------------------------------------|
|--2------------------------------------|-------------------------------------------|
|--0-0-0-0-0--0-0---0--0--0-0--0-0--0-0-|--0-0--0-0--0-0--0-0---0--0-0-0-0-0-0-0----|
|---------------------------------------|-------------------------------------------|


|-------------16-------17-----------|
|-17-----19-------------------------|
|-----------------------------------|
|-----------------------------------|
|-----------------------------------|
|-----------------------------------|
|
|-----------------------------------|
|-------------17-------19-----------|
|-18-----20-------------------------|
|-----------------------------------|
|-----------------------------------|
|-----------------------------------|
|
|-----------------------------------|
|-----------------------------------|
|-----------------------------------|
|--2--------------------------------|
|--0-0-0--0-0--0-0-0-0--0-0-0-0-0-0-|
|-----------------------------------|
|-----------------------------------|


|-17pb19r======16---------------------------|
|-------------------17---(17)---------------|
|-------------------------------------------|
|-------------------------------------------|
|-------------------------------------------|
|-------------------------------------------|
|
|-------------------------------------------|
|-19b21r=======17---------------------------|
|-------------------16---(16)---------------|
|-------------------------------------------|
|-------------------------------------------|
|-------------------------------------------|
|
|-------------------------------------------|
|-------------------------------------------|
|-------------------------------------------|
|-------------------------------------------|
|--0-----0-0-0--0-0--0-0---0--0-0-0-0-0-0-0-|
|-------------------------------------------|
|-------------------------------------------|


                                                              /          |
|----19--19--16--|----------------|------------------------|-21--------(21)-||
|----------------|-17----19---17--|-[19]b21r==[19]----(19)-|----------------||
|----------------|----------------|------------------------|----------------||
|----------------|----------------|------------------------|----------------||
|----------------|----------------|------------------------|----------------||
|----------------|----------------|------------------------|----------------||
|
|                                                             /          |
|----------------|----------------|------------------------|-18--------(18)-||
|----21--21--17--|----------------|------------------------|----------------||
|----------------|-18----20---18--|-[20]b21r==[20]----(20)-|----------------||
|----------------|----------------|------------------------|----------------||
|----------------|----------------|------------------------|----------------||
|----------------|----------------|------------------------|----------------||
|
|----------------|----------------|------------------------|----------------||
|----------------|----------------|------------------------|----------------||
|-6--------------|-(6)------------|---4--------------------|-(4)------------||
|-6--------------|-(6)------------|---4--------------------|-(4)------------||
|-4--------------|-(4)------------|---2--------------------|-(2)------------||
|----------------|----------------|------------------------|----------------||
|----------------|----------------|------------------------|----------------||


                                          ~~
|-14p9-----9-------9-12-16p12----12-14p9------|
|------10-------10------------14--------------|
|------------11--------------------------11---|
|---------------------------------------------|
|---------------------------------------------|
|---------------------------------------------|
|
|                                         ~~
|---------------------------------------------|
|-16p9-------------9-14-17p14----14-16p9------|
|------11-13----11------------13--------------|
|------------13--------------------------13---|
|---------------------------------------------|
|---------------------------------------------|
|
|---------------------------------------------|
|---------------------------------------------|
|---------------------------------------------|
|--6------------------------------------------|
|--4----6--6--6--6-6--6--6--6--6--6--6-6--6-6-|
|---------------------------------------------|
|---------------------------------------------|


      T     T     T      T     T     T     T
|-----------------------------------------------||
|-14-12-14-12-14-12-9---17-14-17-14-17-14-17-14-||
|-----------------------------------------------||
|-----------------------------------------------||
|-----------------------------------------------||
|-----------------------------------------------||
|
|     T     T     T      T     T     T     T
|-----------------------------------------------||
|-----------------------------------------------||
|-14-13-14-13-14-13-9---18-13-18-13-18-13-18-13-||
|-----------------------------------------------||
|-----------------------------------------------||
|-----------------------------------------------||
|
|-----------------------------------------------||
|-----------------------------------------------||
|-----------------------------------------------||
|-----------------------------------------------||
|--4--4--4--4--4--4-4-4--4--4--4--4--4--4--4--4-||
|-----------------------------------------------||
|-----------------------------------------------||


  Gtr I
   T        T          T          T          T          T          T          T
|-19-17-14-19-17---14-------------------------------------------------------------------|
|---------------------19-17---14-19-17---14---------------------------------------------|
|-------------------------------------------18-16---13-18-16---13-----------------------|
|-----------------------------------------------------------------18-14---11-18-14---11-|
|---------------------------------------------------------------------------------------|
|---------------------------------------------------------------------------------------|
|
| Gtr III
|---------------------------------------------------------------------------------------|
|---------------------------------------------------------------------------------------|
|---------------------------------------------------------------------------------------|
|--2------------------------------------------------------------------------------------|
|--0--------0----0-----0----0-----0----0-----0----0-----0----0-----0----0-----0----0----|
|---------------------------------------------------------------------------------------|
|---------------------------------------------------------------------------------------|


|---------------------------------17s==21-------||
|-----------------------14---17-----------------||
|--------------------14-------------------------||
|-----------11-12-14----------------------------||
|------9-12-------------------------------------||
|-9-10------------------------------------------||
|
|-----------------------------------------------||
|-----------------------------------------------||
|-----------------------------------------------||
|-----------------------------------------------||
|-0--0-0--0--0--0--0--0--0-0----0----0--0-0-0-0-||
|-----------------------------------------------||
|-----------------------------------------------||


  Gtr I
            ~~~~~~~~~~~~~~~~~~~~~~~                    ~~~~
|-24b26r===23b24--23b24--23b24-----|-----------------------|
|-------------------------------19-|-19b21r===19-17--[14]--|
|----------------------------------|-----------------------|
|----------------------------------|-----------------------|
|----------------------------------|-----------------------|
|----------------------------------|-----------------------|
|
| Gtr II
|           ~~~~~~~~~~~~~~~~~~~~                       ~~~~
|-21b22r===19pb21-19pb21-19pb21----|-----------------------|
|-------------------------------16-|-----------------------|
|----------------------------------|-20pb21r==20-18--[14]--|
|----------------------------------|-----------------------|
|----------------------------------|-----------------------|
|----------------------------------|-----------------------|
|
| Gtr III
|----------------------------------|-----------------------|
|----------------------------------|-----------------------|
|--4-------------------------------|-(4)-------------------|
|--4-------------------------------|-(4)-------------------|
|--2-------------------------------|-(2)-------------------|
|----------------------------------|-----------------------|
|----------------------------------|-----------------------|


                                                      ~~~~
|-19b21---19pb21-19pb21-19--[17]b19r=|=17b19r=12----[12]----||
|------------------------------------|-----------14---------||
|------------------------------------|----------------------||
|------------------------------------|----------------------||
|------------------------------------|----------------------||
|------------------------------------|----------------------||
|
|                                                     ~~~~
|------------------------------------|----------------------||
|-20pb22--20pb22-20pb22-21--[19]b21r=|=19b21r=14----[14]----||
|------------------------------------|-----------14---------||
|------------------------------------|----------------------||
|------------------------------------|----------------------||
|------------------------------------|----------------------||
|
|------------------------------------|----------------------||
|------------------------------------|----------------------||
|--2---------------------------------|-(2)------------------||
|--2---------------------------------|-(2)------------------||
|--0---------------------------------|-(0)------------------||
|------------------------------------|----------------------||
|------------------------------------|----------------------||


  Gtr I
|-------------16h19p16----------------------------|
|----------19----------19-17-15-------------------|
|-------18----------------------18-14-18-16-14-16-|
|-16h19-------------------------------------------|
|-------------------------------------------------|
|-------------------------------------------------|
|
| Gtr III
|-------------------------------------------------|
|-------------------------------------------------|
|-------------------------------------------------|
|-------------------------------------------------|
|--4----------------------------------------------|
|--2-----2--2--2--2--2--2--2--2--2--2--2--2--2--2-|
|-------------------------------------------------|


                                        ~~
|------------------------------------------------|
|------------------------------------------------|
|-14-13------------------------------------------|
|-------16-14-16-14------------16----------------|
|-------------------17-16-17--------16-14--------|
|------------------------------------------------|
|
|------------------------------------------------|
|------------------------------------------------|
|------------------------------------------------|
|------------------------------------------------|
|------------------------------------------------|
|--2--2--2--2--2--2--2--2--2-2----2--2--2-2-2-2--|
|------------------------------------------------|


|-------------------------------------------------|
|----------------------------------------------14-|
|-------------------14-16-14-13----------13-14----|
|----------12-14-16-------------16-14-16----------|
|-12-14-16----------------------------------------|
|-------------------------------------------------|
|
|-------------------------------------------------|
|-------------------------------------------------|
|-------------------------------------------------|
|--2----------------------------------------------|
|--0-----0--0--0--0--0--0--0--0--0--0--0--0--0--0-|
|-------------------------------------------------|
|-------------------------------------------------|


|-------11-12-14-12-11----------11-12-14-12-11----||
|-12-14----------------14-12-14----------------12-||
|-------------------------------------------------||
|-------------------------------------------------||
|-------------------------------------------------||
|-------------------------------------------------||
|
|-------------------------------------------------||
|-------------------------------------------------||
|-------------------------------------------------||
|-------------------------------------------------||
|--0--0--0--0--0--0--0--0--0--0--0--0--0--0--0--0-||
|-------------------------------------------------||
|-------------------------------------------------||


    ~~~~~~~~~~~~~~~~~
|-[12]--------|-(12)--------|----------|-----|
|-------------|-------------|----------|-----|
|-------------|-------------|----------|-----|
|-------------|-------------|----------|-----|
|-------------|-------------|----------|-----|
|-------------|-------------|----------|-----|
|
|-------------|-------------|----------|-----|
|-------------|-------------|----------|-----|
|-------------|-------------|-2--------|-----|
|---2---------|--(2)--------|-2--------|-----|
|---2---------|--(2)--------|-0--------|-----|
|---0---------|--(0)--------|----------|-----|
|-------------|-------------|----------|-----|


  Gtr III
|---------|---------|---------|---------------||
|---------|---------|---------|---------------||
|---------|---------|---------|---------4--6--||
|---------|---------|---------|---------4--6--||
|---------|---------|---------|-4-2-1---2--4--||
|---------|---------|---------|-------4-------||
|---------|---------|---------|---------------||


  Gtr I
|----------|-------------------|
|----------|-------------------|
|----------|-------------6---6-|
|----------|-----8-9-8-9---9---|
|----------|--9----------------|
|----------|-------------------|
|
| Gtr II
|----------|-------------------|
|----------|-------------------|
|----------|-------------------|
|----------|-------------------|
|----------|-------------------|
|----------|-------------------|
|
| Gtr III
|----------|-------------------|
|----------|-------------------|
|----------|-------------------|
|-4--------|-(4)---------------|
|-4--------|-(4)---------------|
|-2--------|-(2)---------------|
|----------|-------------------|


       ~~~      ~~~
|-------------------|-----------------------------|
|-------------------|-----------------------------|
|-------------------|--8--6---------6-6-8-8-10-10-|
|-----[4]------[4]--|-------9-8-9-9---------------|
|-2-2------2-2------|-----------------------------|
|-------------------|-----------------------------|
|
|      ~~~      ~~~
|-------------------|-----------------------------|
|-------------------|-----------------------------|
|-----[8]------[8]--|-----------------------------|
|-9-9------9-9------|-----------------------------|
|-------------------|-----------------------------|
|-------------------|-----------------------------|
|
|-------------------|-----------------------------|
|-------------------|-----------------------------|
|-4-----------------|-(4)-------------------------|
|-4-----------------|-(4)-------------------------|
|-2-----------------|-(2)-------------------------|
|-------------------|-----------------------------|
|-------------------|-----------------------------|


  Gtr I
|-----------|-------------|----------|--------|
|-----------|-------------|----------|--------|
|-11--------|-(11)--------|----------|--------|
|-----------|-------------|----------|--------|
|-----------|-------------|----------|--------|
|-----------|-------------|----------|--------|
|
| Gtr III
|-----------|-------------|----------|--------|
|-----------|-------------|----------|--------|
|--8--------|--(8)--------|-4--------|-(4)----|
|--8--------|--(8)--------|-4--------|-(4)----|
|--6--------|--(6)--------|-2--------|-(2)----|
|-----------|-------------|----------|--------|
|-----------|-------------|----------|--------|


  Gtr III
|-------------------------------|
|-------------------------------|
|-------------------------------|
|-8-----------------------------|
|-6-6-6-6-6-6-6-6-6-6-6-6-6-6-6-|
|-------------------------------|
|-------------------------------|


|---------------------------------|----------|--------||
|---------------------------------|----------|--------||
|---------------------------------|-4--------|-(4)----||
|---------------------------------|-4--------|-(4)----||
|-6-6-6-6-6-6-6-6-6-6-6-6-6-6-6-6-|-2--------|-(2)----||
|---------------------------------|----------|--------||
|---------------------------------|----------|--------||


|----------|-----------------|----------|--------|
|----------|-----------------|----------|--------|
|-6--------|-----------------|-4--------|-(4)----|
|-6--------|-6-----6-----6---|-4--------|-(4)----|
|-4--------|-4-4-4-4-4-4-4-4-|-2--------|-(2)----|
|----------|-----------------|----------|--------|
|----------|-----------------|----------|--------|


|----------|---------||-------------------------------|
|----------|---------||-------------------------------|
|-6--------|---------||-------------------------------|
|-6--------|---------||-4-----------------------------|
|-4--------|---------||-2-2-2-2-2-2-2-2-2-2-2-2-2-2-2-|
|----------|---------||-------------------------------|
|----------|---------||-------------------------------|


|---------------------------------|
|---------------------------------|
|---------------------------------|
|---------------------------------|
|-2-2-2-2-2-2-2-2-2-2-2-2-2-2-2-2-|
|---------------------------------|
|---------------------------------|


|----------|----------|-------------------------------|------|
|----------|----------|-------------------------------|------|
|----------|-6--------|-------------------------------|-6----|
|-4--------|-6--------|-8-----------------------------|-6----|
|-4--------|-4--------|-6-6-6-6-6-6-6-6-6-6-6-6-6-6-6-|-4----|
|-2--------|----------|-------------------------------|------|
|----------|----------|-------------------------------|------|


  Gtr I
                         T        T        T        T        T        T        T        T
|----------|----------|-19-14-11-19-14-11-19-14-11-21-14-11-19-14-11-19-14-11-19-14-11-21-14-11-|
|----------|----------|-------------------------------------------------------------------------|
|----------|----------|-------------------------------------------------------------------------|
|----------|----------|-------------------------------------------------------------------------|
|----------|----------|-------------------------------------------------------------------------|
|----------|----------|-------------------------------------------------------------------------|
|
| Gtr II
|                        T        T        T        T        T        T        T        T
|----------|----------|-------------------------------------------------------------------------|
|----------|----------|-19-16-12-19-16-12-19-16-12-23-16-12-19-16-12-19-16-12-19-16-12-23-16-12-|
|----------|----------|-------------------------------------------------------------------------|
|----------|----------|-------------------------------------------------------------------------|
|----------|----------|-------------------------------------------------------------------------|
|----------|----------|-------------------------------------------------------------------------|
|
| Gtr III
|----------|----------|-------------------------------------------------------------------------|
|----------|----------|-------------------------------------------------------------------------|
|-4--------|-6--------|--4----------------------------------------------------------------------|
|-4--------|-6--------|--4----------------------------------------------------------------------|
|-2--------|-4--------|--2----------------------------------------------------------------------|
|----------|----------|-------------------------------------------------------------------------|
|----------|----------|-------------------------------------------------------------------------|


                     /              |
   ~~  ~~  ~~  ~~
|-19--19--19--19--|-19------------(19)-||
|-----------------|--------------------||
|-----------------|--------------------||
|-----------------|--------------------||
|-----------------|--------------------||
|-----------------|--------------------||
|
|                    /              |
|  ~~
|-----------------|-14------------(14)-||
|-19--19--19--19--|--------------------||
|-----------------|--------------------||
|-----------------|--------------------||
|-----------------|--------------------||
|-----------------|--------------------||
|
|-----------------|--------------------||
|-----------------|--------------------||
|--4---4---4---4--|--------------------||
|--4---4---4---4--|--------------------||
|--2---2---2---2--|--------------------||
|-----------------|--------------------||
|-----------------|--------------------||


  Gtr I
|----14----14----16----19-|-----18-19-18-------------|
|-14----14----14----14----|-14-----------19s14-------|
|-------------------------|--------------------15s11-|
|-------------------------|--------------------------|
|-------------------------|--------------------------|
|-------------------------|--------------------------|
|
| Gtr III
|-------------------------|--------------------------|
|-------------------------|--------------------------|
|-------------------------|--------------------------|
|--4----------------------|-(4)----------------------|
|--4----------------------|-(4)----------------------|
|--2----------------------|-(2)----------------------|
|-------------------------|--------------------------|


|-----------------------------|--------14-11-14-16-14h16p14h16--||
|--------------------------11-|-14--16--------------------------||
|-----------------11-13-14----|---------------------------------||
|-16s=13-11-11-13-------------|---------------------------------||
|-----------------------------|---------------------------------||
|-----------------------------|---------------------------------||
|
|-----------------------------|---------------------------------||
|-----------------------------|---------------------------------||
|-----------------------------|---------------------------------||
|-(4)-------------------------|-(4)-----------------------------||
|-(4)-------------------------|-(4)-----------------------------||
|-(2)-------------------------|-(2)-----------------------------||
|-----------------------------|---------------------------------||


  Gtr I
                                       ~~                                       ~~
|-14-13-11----------------------------14--|-14-13-11------------------------------------|
|----------14-12-11-------11-14-11-14-----|----------14-12-11---------------------------|
|-------------------13-11-----------------|-------------------13-11-10------------------|
|-----------------------------------------|----------------------------13-11-9----------|
|-----------------------------------------|------------------------------------13-------|
|-----------------------------------------|---------------------------------------------|
|
| Gtr II
|                                      ~~
|-11--9--7-----------------------------9--|-11--9--7------------------------------------|
|----------11--9--7--------7-11--7-11-----|----------11--9--7---------------------------|
|-------------------10--8-----------------|-------------------10--8--6------------------|
|-----------------------------------------|-----------------------------9--8-6----------|
|-----------------------------------------|-------------------------------------9-8-6---|
|-----------------------------------------|-------------------------------------------9-|
|
| Gtr III
|-----------------------------------------|---------------------------------------------|
|-----------------------------------------|---------------------------------------------|
|-----------------------------------------|---------------------------------------------|
|--4--------------------------------------|---------------------------------------------|
|--4--------------------------------------|---------------------------------------------|
|--2--------------------------------------|---------------------------------------------|
|-----------------------------------------|---------------------------------------------|


                                      ~~~
|-19b21----/18----|-/19-/18-/19-/21-/21-----*|
|-----------------|-------------------------*|
|-----------------|-------------------------*|
|-----------------|-------------------------*|
|-----------------|-------------------------*|
|-----------------|-------------------------*|
|
|                                     ~~~
|-----------------|-------------------------*|
|-21b23----/19----|-/21-/19--21-/23-/23-----*|
|-----------------|-------------------------*|
|-----------------|-------------------------*|
|-----------------|-------------------------*|
|-----------------|-------------------------*|
|
|-----------------|-------------------------*|
|-----------------|-------------------------*|
|------------6----|-------------------------*|
|--4---------6----|---4---4---4---6---4-----*|
|--4---------4----|---2---1---2---4---4-----*|
|--2--------------|-------------------2-----*|
|-----------------|-------------------------*|


Tablature Legend
----------------
 h   - hammer-on
 p   - pull-off
 b   - bend
 pb  - pre-bend
 r   - bend release (if no number after the r, then release immediately)
 /\  - slide into or out of (from/to "nowhere")
 s   - legato slide
 S   - shift slide
  - natural harmonic
[n]  - artificial harmonic
n(n) - tapped harmonic
 ~   - vibrato
 tr  - trill
 T   - tap
 TP  - trem. picking
 PM  - palm muting
\n/  - tremolo bar dip; n = amount to dip
 \n  - tremolo bar down
 n/  - tremolo bar up
/n\  - tremolo bar inverted dip
 =   - hold bend; also acts as connecting device for hammers/pulls
 <>  - volume swell (louder/softer)
 x   - on rhythm slash represents muted slash
 o   - on rhythm slash represents single note slash

Misc Legend
-----------
 |  - bar
||  - double bar
||o - repeat start
o|| - repeat end
*|  - double bar (ending)
 :  - bar (freetime)
 $  - Segno
 &  - Coda
Tempo markers -  = BPM(8/16=s8/s16), where s8 = swing 8ths, s16 = swing 16ths



            
            
Suggest correction
Creating personal tab
Creating personal tab
You can edit any tab online and save it as your Personal.

You can edit, replace or remove any tab part or add personal notes – all changes will be seen only by you.

Personal tabs can be accessed anytime from any device, even offline.
Learn more »
comments
print report bad tab
9 comments total. Showing first comments.
0 reply
Ratt n' Roll 205 Aug 15, 2007 12:11 PM

This song kicks ass. I'm glad to see somebody tabbed the whole version of the song. The other text tab of this song is the cut down video version. Anyway, nice tab. I would also like to see somebody make a text tab of the song "Lost souls in endless time"-thats the bonus song on the inhuman rampage special edition album, Or even tab parts of it. Any one who hasn't bought the special edition one should buy it. That is is F*cking awesome.

0 reply
metallicax6 83 Aug 26, 2007 08:18 AM

Wow I didn't know Dragonforce ever played a 7-string. But I don't doubt it. Amazingly kickass tab. \m/

0 reply
NeverReadyWyatt 20 Oct 16, 2007 09:17 PM

Thats because dragonforce never have played 7 strings in their songs. That must have been a stuff up- watch their video for this song if you want proof.
Oh and FYI, Steve Vai invented the 7 string guitar.

guest
You may want to rate the tab now too:
select rating
Wanna post a correction for this tab? Suggest correction