Oops, an error
Loading. Please wait.

Seasons Tab

version 1
version 1

Acoustic

Interactive

33,630 views 21 this week
4 commentsread comments
1 2 3 4 5
x 8
add to favorites
launch autoscroll
font size
0
reset
how to read this tab
guitar tuner
Autoscroll
slow
fast
+/-
esc
set tempo
stop
Help us to improve Ultimate-Guitar.com Take our survey!
×
So, it can be played open, but i find it easier to play with capo on two. im
writing it as if it were open, but it works with a capo. you could also tune it
down a half step and that might help with spacing

 [Intro]
 Cm            Ab7             Bb
e|------------------------------------------------------------------|
B|-----4---------------4--------------------------------------------|
G|---5---5---5-----5-----5---5---------7----------------7-----------|
D|--5------5-----5---------5-------8-----8---8------8-----8---8-----|
A|-3--3--------------------------8---8-----8------8---8-----8-------|
E|-------------4-----4---------6----------------6-------------------|

 Cm            Ab7             Bb
e|----------------------------------------------6--------------------|
B|-----4---------------4------------------------6--------------------|
G|---5---5---5-----5-----5---5---------7--------7--------------------|
D|--5------5-----5---------5-------8-----8---8--8--------------------|
A|-3--3--------------------------8---8-----8----8--------------------|
E|-------------4-----4---------6----------------6--------------------|

 [Verse]
  Cm        Ab      Adim       Ab       X2
e|--------------------------------------|
B|-----4--------4--------4---------4----|
G|---5--5-5---5--5-5---5--5-5----5--5-5-|
D|--5-5--5---6-6--6---7-7--7----6-6--6--|
A|-3--------3--------3---------3--------|
E|--------------------------------------|

 [Pre-Chorus]
   Ab        Fm      Cm     (?)    Bb
e|-4---------8-------3-------------6-----|
B|-4---------9-------4-------------6-----|
G|-7---------10------5-------------7-----|
D|-6---------10------5-------------8-----|
A|-6---------8-------3-------------8-----|
E|-4-------------------------------6-----|

 [Chorus] (pick varriably)
  D#m      B      C#                   x2
e|-6-------7------9-------------------|
B|-7-------7------9-------------------|
G|-8-------8------10------------------|
D|-8-------9------11------------------|
A|-6-------9------11------------------|
E|---------7------9-------------------|

  D#m      B       F#     C#    B      C#
e|-6-------7-------2------4-----2------4----|
B|-7-------7-------2------6-----4------6----|
G|-8-------8-------3------6-----4------6----|
D|-8-------9-------4------6-----4------6----|
A|-6-------9-------4------4-----2------4----|
E|---------7-------2------------------------|

 [Intro]
 [Verse 2] (Strum varriably)
   Cm   Ab   Fm    Fm     X2
e|-3----3----1-----1-----|
B|-4----4----1-----1-----|
G|-5----5----1-----1-----|
D|-5----6----3-----3-----|
A|-3----3----3-----3-----|
E|-----------1-----1-----|

 [Pre-Chorus]
  Ab        Fm      Cm     (?)    Bb
e|-4---------8-------3-------------6-----|
B|-4---------9-------4-------------6-----|
G|-7---------10------5-------------7-----|
D|-6---------10------5-------------8-----|
A|-6---------8-------3-------------8-----|
E|-4-------------------------------6-----|

 [Chorus] (Strum)
  D#m      B      C#                   x2
e|-6-------7------9-------------------|
B|-7-------7------9-------------------|
G|-8-------8------10------------------|
D|-8-------9------11------------------|
A|-6-------9------11------------------|
E|---------7------9-------------------|

  D#m      B       F#     C#    B      C#
e|-6-------7-------2------4-----2------4----|
B|-7-------7-------2------6-----4------6----|
G|-8-------8-------3------6-----4------6----|
D|-8-------9-------4------6-----4------6----|
A|-6-------9-------4------4-----2------4----|
E|---------7-------2------------------------|

 [Solo] (Still working on it)
  D#m      B      C#                   x2
e|-6-------7------9-------------------|
B|-7-------7------9-------------------|
G|-8-------8------10------------------|
D|-8-------9------11------------------|
A|-6-------9------11------------------|
E|---------7------9-------------------|

[Intro Chords] (part splits into melody/ counter-melody, so technically no chords)

 [Pre-Chorus] (Let Ring)
   Ab        Fm      Cm     (?)    Bb
e|-4---------8-------3-------------6-----|
B|-4---------9-------4-------------6-----|
G|-7---------10------5-------------7-----|
D|-6---------10------5-------------8-----|
A|-6---------8-------3-------------8-----|
E|-4-------------------------------6-----|

 [Chorus] x2
  D#m      B      C#                   x2
e|-6-------7------9-------------------|
B|-7-------7------9-------------------|
G|-8-------8------10------------------|
D|-8-------9------11------------------|
A|-6-------9------11------------------|
E|---------7------9-------------------|

  D#m      B       F#     C#    B      C#
e|-6-------7-------2------4-----2------4----|
B|-7-------7-------2------6-----4------6----|
G|-8-------8-------3------6-----4------6----|
D|-8-------9-------4------6-----4------6----|
A|-6-------9-------4------4-----2------4----|
E|---------7-------2------------------------|
Outro (NO CLUE)

[Intro]
Cm  Ab7  Bb
Cm  Ab7  Bb

[Verse 1]
Cm                   Ab
Im searching through emptyness,
    Adim                  Ab
And tryin to forget us in vain
Cm               Ab
The light of the dark setting sun
Adim                        Ab
Will bring my sadness to an end

[Pre-Chorus]
Ab                         Fm
Voices cry out through the fear and the doubt
Cm                             Bb
As we wait for our lives to be better

[Chorus]
D#m           B     C#
The words are dying in the night
   D#m    B       C#
No winter last forever
    D#m     B        F#            C#
the seasons pass and Sunlight will shine on my
B                      C#
Life again, so let the past, now burn down in

[Intro]
Cm Ab Bb
Flames
Cm Ab Bb
Oooh

[Verse 2]
Cm                      Ab
Locked in a prison in a world of living fears
Fm
On the edge of my destruction drawning near (?)
Cm                             Ab
Still suffering darkness, even dreams of life not meant to be
Fm
As i cast away and search the rising sun

[Pre-Chorus]
Ab                     Fm
Sadness inside for the truth that she hides
           Cm                      Bb
And theres pain in my heart for no reason

[Chorus]
    D#m       B     C#
The words are dying in the night
   D#m    B       C#
No winter last forever
    D#m     B        F#            C#
the seasons pass and Sunlight will shine on my
B                      C#
Life again, so let the past, now burn down in

[Solo]
D#m  B  C#
Flames
D#m  B  C#
Cm  Ab Bb
Cm  Ab Bb

[Pre-Chorus]
Ab                         Fm
Voices cry out through the fear and the doubt
      Cm                       Bb
As we wait for our lives to be better

[Chorus]
    D#m       B     C#
The words are dying in the night
   D#m    B       C#
No winter last forever
    D#m     B        F#            C#
the seasons pass and Sunlight will shine on my
B                        C#
Life again, so leave the past behind
    D#m         B      C#
The dark clouds fading from my mind
   D#m       B       C#
No pain will last forever
    D#M     B        F#            C#          B
The seasons pass and sunlight will shine on my life again,
           C#                    Cm
So let the past now burn down in flames

[Outro]
Suggest correction
comments
print report bad tab
4 comments total. Showing first comments.
0 reply
HeavyMetalRock 20 May 22, 2012 12:36 PM

Good stuff, I feel there's a few issues with the tab parts but on the whole really good job :D

0 reply
Rogon 10 Jun 02, 2012 10:33 AM

Really good tab!

The Chords are perfect!
Good job

0 reply
sealeyedwin 10 Oct 25, 2012 05:40 PM

could you write out the second guitar parts?, thats what really makes the song, but good job

guest
You may want to rate the tab now too:
select rating
Wanna post a correction for this tab? Suggest correction