Oops, an error
Loading. Please wait.

Soldiers Of The Wasteland Tab

version 1
version 1

Intro

Whole song

Interactive

11,736 views 1 this week
no commentswrite comment
1 2 3 4 5
excellent!
x 5
add to favorites
launch autoscroll
font size
0
reset
how to read this tab
guitar tuner
Autoscroll
slow
fast
+/-
esc
set tempo
stop
Help us to improve Ultimate-Guitar.com Take our survey!
×
Author
Difficulty
Soldiers of the Wasteland INTRO
Tabbed by; Nate Pritchett
Standard Tuning

Sorry for such a short tab, but this is all i had time to do, I'll have more up as soon 
i can...for now, enjoy

--------12-14-12-10-12-14-12-10------------------|
--12-15-------------------------12-10------------|
-------------------------------------------------|
-------------------------------------------------|
-------------------------------------------------|
-------------------------------------------------|

---------12-14-12-10-12-12-14-12--------------|
---12-15--------------------------------------|
----------------------------------------------|
----------------------------------------------|
----------------------------------------------|
----------------------------------------------|

--------12-14-12-10-12-14-12-10------------------|
--12-15-------------------------12-10------------|
-------------------------------------------------|
-------------------------------------------------|
-------------------------------------------------|
-------------------------------------------------|

--------12-14-12-10-7-10-7----7----------------|
--12-15--------------------10------------------|
-----------------------------------------------|
-----------------------------------------------|
-----------------------------------------------|
-----------------------------------------------|

--------17-19-17----17-19-17-------------------17-19-17--17*-19*-17-15-17---|
--19-19----------19----------19--17------19-19---------19-------------------|
------------------------------------19--------------------------------------|
----------------------------------------------------------------------------|
----------------------------------------------------------------------------|
----------------------------------------------------------------------------|

--------12-14-12-10-12-14-12-10------------------|
--12-15-------------------------12-10------------|
-------------------------------------------------|
-------------------------------------------------|
-------------------------------------------------|
-------------------------------------------------|

--------12-14-12-10-7-10-7----7----------------|
--12-15--------------------10------------------|
-----------------------------------------------|
-----------------------------------------------|
-----------------------------------------------|
-----------------------------------------------|

---------------------------------------------------------------------|\-- /
------------------------------------------------------------------------- / \
---------------------------------------------------------------------|  \ /x4
--12---999---12--999---12--999---12-11-12-14-------------------------| -- /
--12---999---12--999---12--999---12-11-12-14-------------------------|--- /
------------------------------------------------------------------------- /

----------------------------------------------|
----------------------------------------------|
----------------------------------------------|
--12---999---12--999---12--999--8-------------|
--12---999---12--999---12--999--8-------------|
----------------------------------------------|

-19---------19---------19-------17-15----------|\-- /
----17----17---17---17----17----------19-17-------- / \
-------16---------16---------16----------------|  \ /x3
-----------------------------------------------| -- /
-----------------------------------------------|--- /
--------------------------------------------------- /


Then something MORE TO COME LATER  : )
Suggest correction
comments
print report bad tab
guest
You may want to rate the tab now too:
select rating
Please do not post tabs as comments. Select "correction" instead!