Oops, an error
Loading. Please wait.

Through The Fire And Flames Tab

version 1
619,123 views 222 this week
36 commentsread comments
1 2 3 4 5
worth learning
x 38
add to favorites
launch autoscroll
font size
0
reset
how to read this tab
guitar tuner
Tab Pro tools
  • play this tab
  • loop segment
  • change instrument
  • show fretboard
  • metronome
×
Best way to learn
"Through The Fire And Flames"
Autoscroll
slow
fast
+/-
esc
set tempo
stop
Contributor
Difficulty
advanced
sorry lil lie..but u cant choose only up to the chorus but
the rest will come

Trough the Fire and Flames

Dragonforce
Inhuman Rampage

Tabber - Symphon

TUNING - Standard (E,A,D,G,B,e)


gtrI+II with keyboard in back
(0:01) (0:03) (0:05)  (0:08)(0:09)
 C5      C5   Bb       Ab     G5
|-----------------------------------|
|-----------------------------------|
|-5------5--------------------------|
|-5------5-----8-(8)----6-----5-----|
|-3----xx3-----8-(8)----6-----5-----|
|--------------6-(6)----4-----3-----|

(0:10)(0:13) (0:15)    (0:18)
|-----------------------------------|
|-----------------------------------|
|-5------5--------------------------|
|-5------5-----6-(6)----5---5-5-5---|
|-3----xx3-----6-(6)----5---5-5-5---|
|--------------4-(4)----3---3-3-3---|

GtrI
|--------------------------------------------------------|
|--------------------------------------------------------|
|-888688686888688686--121212812128128121212812128128-----|
|--------------------------------------------------------|
|--------------------------------------------------------|
|--------------------------------------------------------|

|--------------------------------------------------------|
|--------------------------------------------------------|
|-101010810108108101010810108108--888688686--77777-------|
|--------------------------------------------------------|
|--------------------------------------------------------|
|--------------------------------------------------------|

gtrII
|-------------------------------------------------------------------------|
|-------------------------------------------------------------------------|
|-5---------------12----------------10--------------8---------------7-----|
|-5---------------12----------------10--------------8---------------7-----|
|-3-3-3-3-3-3-3-3-10-10-10-10-10-10-8-8-8-8-8-8-8-8-6-6-6-6-6-6-6-6-5-5-5-|
|-------------------------------------------------------------------------|

GtrI
|--------------------------------------------------------|
|--------------------------------------------------------|
|-888688686888688686--121212812128128121212812128128-----|
|--------------------------------------------------------|
|--------------------------------------------------------|
|--------------------------------------------------------|
                                                    VERY HEAVY WHAMMY BAR ACTION HERE!!!
|----------------------------------------------------<5>-|
|--------------------------------------------------------|
|-101010810108108101010810108108--888688686--77777-------|
|--------------------------------------------------------|
|--------------------------------------------------------|
|--------------------------------------------------------|
gtrII
|-------------------------------------------------------------------------|
|-------------------------------------------------------------------------|
|-5---------------12----------------10--------------8---------------7-----|
|-5---------------12----------------10--------------8---------------7-----|
|-3-3-3-3-3-3-3-3-10-10-10-10-10-10-8-8-8-8-8-8-8-8-6-6-6-6-6-6-6-6-5-----|
|-------------------------------------------------------------------------|

(0:39,0:40)
on a cold, in a time, in flames, we ride,
|------------------------------------------------|
|------------------------------------------------|
|-5--------------------------------5-5-------5---|
|-5------------6---------8---------5-5--6-6--5---|
|-3------------6---------8---------3-3--6-6--3---|
|--------------4---------6--------------4-4------|

Crazy keyboard

gtrI+II
|---------------------------------------------------------------|
|---------------------------------------------------------------|
|-5-----------------5-5-----------------------------------------|
|-5-----------------5-5--6--------------------8------8----------|
|-33333333333333333-3-3--6--------------------8------8----------|
|------------------------4444444444444444----x666666x666666666--|
pm ................       ...............    . ...... ........

|------------------------------|
|------------------------------|
|-----5-----5---5-5-3-5--------|
|-----5-----5---5-5-3-5--------|
|-3-3-3-3-3-3---3-3-1-3-3-3-3--|
|------------------------------|
pm. .   . .             . . .

still working on lead riff that goes over this rhythm section.
|---------------------------------------------------------------------------|
|---------------------------------------------------------------------------|
|-5-----------------5-5-----------------------------------------------------|
|-5-----------------5-5--6--------------------8---8-<6h8>----------<6h8>----|
|-33333333333333333-3-3--6--------------------8---8-------8-8-<6h8>---------|
|------------------------4444444444444444----x6-6---------6-6---------------|
pm ................       ...............    .  .
|--------------------|
|--------------------|
|-5-------------5-5--|
|-5-------------5-5--|
|-3-3-3-3-3-3-3-3-3--|
|--------------------|
pm  . . . . . .


|------------------------------------------------------|\herman doing some tapping here
|------------------------------------------------------|
|-10------10------10------10------10---5-(5)-(5)-------|
|-10------10------10------10------10---5-(5)-(5)-------|
|-8-8-8-8-8-8-8-8-8-8-8-8-8-8-8-8-8----3-(3)-(3)-------|
|------------------------------------------------------|

|----------------------------/-/-/-/-/----------------------------------------------------|
|----------------------------/-/-/-/-/(pick scrape towards the bridge over the pick ups)--|
|-----------------------------------------------------------------------------------------|
|--6-----6-----6-----8-(8)----------------------------------------------------------------|
|--6-----6-----6-----8-(8)----------------------------------------------------------------|
|--4-4-4-4-4-4-4-4-4-6-(6)----------------------------------------------------------------|

|----------------------------------------/-/-/-/-/----------------------------------|
|----------------------------------------/-/-/-/-/(pick scrape towards the bridge---|
|------------------------------------------------------ over the pick ups)----------|
|--6-----6-----6-----8-(8)-----8--6--8----------------------------------------------|
|--6-----6-----6-----8-(8)-----8--6--8----------------------------------------------|
|--4-4-4-4-4-4-4-4-4-6-(6)-6-6-6--4--6----------------------------------------------|


chorus
gtrI
so now we fly,
|----------------------------------------------------------------------------------|
|----------------------------------------------------------------------------------|
|----------8-----------------------5---5-------------------------------------------|
|----------8---8-----6----4---<6>--5---5---<3/5>-8---8----------6------------------|
|----------6---8-----6--4---4------3-3-3-3-------8---8---<6/8>--6------------------|
|--------------6-6-6-4---------------------------6-6-6-6--------444444444444-------|
pm               . .    . . .        .   .         .   .         ...........

gtrII                     +     +     +     +
|----------------------------------------------------------------------------------|
|----------------------------------------------------------------------------------|
|----------8-----------------------------------------------------------------------|
|----------8---8-----6-------------------------------------------------------------|
|----------6---8-----6---(12)--(15)--(17)--(19)------------------------------------|
|--------------6-6-6-4-------------------------------------------------------------|
pm               . .
comments
print report bad tab
36 comments total. Showing first comments. show 1 bad comment
+3 reply
EMOrocker666 wrote on April 6 2006, 09:42 am

dude i admire u 4 submitin this tab nice 1 dude! DRAGONFORCE 4EVA! ROCK ON!

-2 reply
Adam*The Chaos* wrote on June 17 2006, 05:34 am

Nice tab so far man crazy Dragonforce hehe

I want to post or [tab]
guest
You may want to rate the tab now too:
select rating
Please do not post tabs as comments. Select "correction" instead!