Oops, an error
Loading. Please wait.
We have an official Through The Fire And Flames tab made by UG professional guitarists. Check out the tab »
×
643,952 views 384 this week
435 commentsread comments
1 2 3 4 5
x 365
add to favorites
×
Save as Personal and add changes to this tab that will be seen only by you. Learn more ›
×
You can save this tab as Personal to edit and correct it or add notes. All changes will be seen only by you. Learn more »
launch autoscroll
font size
0
reset
how to read this tab
guitar tuner
backing track
0:00
0:00
edit
Autoscroll
slow
fast
+/-
esc
set tempo
stop
Author
Difficulty
Tabbed By lDragon-Slayerl
 
[Lead Guitar 1]

    W                    S  S  S  S S S  S  S  S  S S S  S  S S S
e|-------------------|--11-11-11-11-8-8-11-11-11-11-8-8-11-11-8-8-|
B|-------------------|--------------------------------------------|
G|-------------------|--------------------------------------------|
D|-------------------|--------------------------------------------|
A|-------------------|--------------------------------------------|
E|-------------------|--------------------------------------------|


     S  S  S  S S S  S  S  S  S S S  S  S S S
e|--11-11-11-11-8-8-11-11-11-11-8-8-11-11-8-8-|
B|--------------------------------------------|
G|--------------------------------------------|
D|--------------------------------------------|
A|--------------------------------------------|
E|--------------------------------------------|


     S  S  S  S  S  S  S  S  S  S  S  S  S  S  S  S
e|--15-15-15-15-11-11-15-15-15-15-11-11-15-15-11-11-|
B|--------------------------------------------------|
G|--------------------------------------------------|
D|--------------------------------------------------|
A|--------------------------------------------------|
E|--------------------------------------------------|


     S  S  S  S  S  S  S  S  S  S  S  S  S  S  S  S
e|--15-15-15-15-11-11-15-15-15-15-11-11-15-15-11-11-|
B|--------------------------------------------------|
G|--------------------------------------------------|
D|--------------------------------------------------|
A|--------------------------------------------------|
E|--------------------------------------------------|


     S  S  S  S S S  S  S  S  S S S  S  S S S
e|--13-13-13-13-8-8-13-13-13-13-8-8-13-13-8-8-|
B|--------------------------------------------|
G|--------------------------------------------|
D|--------------------------------------------|
A|--------------------------------------------|
E|--------------------------------------------|


     S  S  S  S S S  S  S  S  S S S  S  S S S
e|--13-13-13-13-8-8-13-13-13-13-8-8-13-13-8-8-|
B|--------------------------------------------|
G|--------------------------------------------|
D|--------------------------------------------|
A|--------------------------------------------|
E|--------------------------------------------|


     S  S  S  S S S  S  S  S  S S S  S  S S S
e|--11-11-11-11-8-8-11-11-11-11-8-8-11-11-8-8-|
B|--------------------------------------------|
G|--------------------------------------------|
D|--------------------------------------------|
A|--------------------------------------------|
E|--------------------------------------------|


    S  S  S  S  S  S  S  S   E    E    Q
e|--8-10-11-13-10-11-13-15-/11--/13--/15~----|
B|-------------------------------------------|
G|-------------------------------------------|
D|-------------------------------------------|
A|-------------------------------------------|
E|-------------------------------------------|


     S  S  S  S S S  S  S  S  S S S  S  S S S
e|--11-11-11-11-8-8-11-11-11-11-8-8-11-11-8-8-|
B|--------------------------------------------|
G|--------------------------------------------|
D|--------------------------------------------|
A|--------------------------------------------|
E|--------------------------------------------|


     S  S  S  S S S  S  S  S  S S S  S  S S S
e|--11-11-11-11-8-8-11-11-11-11-8-8-11-11-8-8-|
B|--------------------------------------------|
G|--------------------------------------------|
D|--------------------------------------------|
A|--------------------------------------------|
E|--------------------------------------------|


     S  S  S  S  S  S  S  S  S  S  S  S  S  S  S  S
e|--15-15-15-15-11-11-15-15-15-15-11-11-15-15-11-11-|
B|--------------------------------------------------|
G|--------------------------------------------------|
D|--------------------------------------------------|
A|--------------------------------------------------|
E|--------------------------------------------------|


     S  S  S  S  S  S  S  S  S  S  S  S  S  S  S  S
e|--15-15-15-15-11-11-15-15-15-15-11-11-15-15-11-11-|
B|--------------------------------------------------|
G|--------------------------------------------------|
D|--------------------------------------------------|
A|--------------------------------------------------|
E|--------------------------------------------------|


     S  S  S  S S S  S  S  S  S S S  S  S S S
e|--13-13-13-13-8-8-13-13-13-13-8-8-13-13-8-8-|
B|--------------------------------------------|
G|--------------------------------------------|
D|--------------------------------------------|
A|--------------------------------------------|
E|--------------------------------------------|


     S  S  S  S S S  S  S  S  S S S  S  S S S
e|--13-13-13-13-8-8-13-13-13-13-8-8-13-13-8-8-|
B|--------------------------------------------|
G|--------------------------------------------|
D|--------------------------------------------|
A|--------------------------------------------|
E|--------------------------------------------|


                                                  /1
     S  S S S S S  S S   S  S S S S S  S S        W
e|--11p-8------------8--11p-8------------8-|--<>(16)----------------|
B|--------9---8-9-11----------9---8-9-11---|------------------------|
G|----------8-------------------8----------|------------------------|
D|-----------------------------------------|------------------------|
A|-----------------------------------------|------------------------|
E|-----------------------------------------|------------------------|

    E  E  E  E  E  E  E  E     E  E  E  E  E  E  E  E
e|--------------------------|--------------------------|
B|--9--------8--------6-----|--9--------8--------6-----|
G|-----5--5-----5--5-----5--|-----5--5-----5--5-----5--|
D|--------------------------|--------------------------|
A|--------------------------|--------------------------|
E|--------------------------|--------------------------|


     T    T    T    T    T    T    T    T
     S S  S S  S S  S S  S S  S S  S S  S S
e|--11-8-11-8-11-8-11-8-11-8-11-8-11-8-11-8-|
B|------------------------------------------|
G|------------------------------------------|
D|------------------------------------------|
A|------------------------------------------|
E|------------------------------------------|


     T    T    T    T    T    T    T    T
     S S  S S  S S  S S  S S  S S  S S  S S    E  E  E  E  E  E  E  E
e|--11-8-11-8-11-8-11-8-11-8-11-8-11-8-11-8-|--------------------------|
B|------------------------------------------|--9--------8--------6-----|
G|------------------------------------------|-----8--8-----8--8-----8--|
D|------------------------------------------|--------------------------|
A|------------------------------------------|--------------------------|
E|------------------------------------------|--------------------------|


    E  E  E  E  E  E  E  E      W
e|--------------------------|--------------------|
B|--9--------8--------6-----|--11----------------|
G|-----8--8-----8--8-----8--|--------------------|
D|--------------------------|--------------------|
A|--------------------------|--------------------|
E|--------------------------|--------------------|


    E    E    E    E    E    E    E    E     W
e|--8S--10S--11S--13S--15S--16S--18S--23--|-------------------|
B|----------------------------------------|-------------------|
G|----------------------------------------|-------------------|
D|----------------------------------------|-------------------|
A|----------------------------------------|-------------------|
E|----------------------------------------|-------------------|

    W                   E  E  E  E  E  E  E  E      W
e|-------------------|--------------------------|--------------------|
B|-------------------|--8--------6--------8-----|--11----------------|
G|-------------------|-----8--8-----8--8-----8--|--------------------|
D|-------------------|--------------------------|--------------------|
A|-------------------|--------------------------|--------------------|
E|-------------------|--------------------------|--------------------|


    S S S S S S S S S S S S S S S S    S S S S S S S S S S S S S S S S
e|----------6-6-8-8---------6-6-8-8-|----------6-6-8-8---------6-6-8-8-|
B|--6-6-9-9---------6-6-9-9---------|--6-6-9-9---------6-6-9-9---------|
G|----------------------------------|----------------------------------|
D|----------------------------------|----------------------------------|
A|----------------------------------|----------------------------------|
E|----------------------------------|----------------------------------|


    W                      W                    W
e|--6----------------|-----------------------|-------------------|
B|-------------------|-----------------------|-------------------|
G|-------------------|--<>10b----------------|-------------------|
D|-------------------|-----------------------|-------------------|
A|-------------------|-----------------------|-------------------|
E|-------------------|-----------------------|-------------------|

                                                             PM PM
    W                   E  Q    E  E  E  E  E     E  Q    E  E  E    Q
e|-------------------|-------------------------|-------------------<>6----|
B|-------------------|--8--8----6--8--6--------|--8--8-------6--8---------|
G|-------------------|-------------------8--5--|----------8---------------|
D|-------------------|-------------------------|--------------------------|
A|-------------------|-------------------------|--------------------------|
E|-------------------|-------------------------|--------------------------|


    E  Q    S S S S S S S S S S    E  E   E     H         E
e|----------------------6-6-----|--6--8--10--<>11~--------L--|
B|--8--8----6-6-8-8-9-9-----8-8-|----------------------------|
G|------------------------------|----------------------------|
D|------------------------------|----------------------------|
A|------------------------------|----------------------------|
E|------------------------------|----------------------------|


      E  E  E    Q    E  E   E         E   E   E   E  E    E   S   S  E
e|--<>6------------------6--11--|--/<>15--11--15--16-----/18--16p-15-----|
B|-------8----------------------|------------------------------------16--|
G|----------8--<>8----8---------|----------------------------------------|
D|------------------------------|----------------------------------------|
A|------------------------------|----------------------------------------|
E|------------------------------|----------------------------------------|


      E   E    E    E   E   E   E    E
e|--/23--23s--18S--23--23--18--23s--18--|
B|--------------------------------------|
G|--------------------------------------|
D|--------------------------------------|
A|--------------------------------------|
E|--------------------------------------|


     T     T     T     T     T     T     T
     S  S  S  S  S  S  S  S  S  S  S  S  S  S   E
e|--18-16-18-16-18-16-18-16-18-15-20-16-18-15s-11--|
B|-------------------------------------------------|
G|-------------------------------------------------|
D|-------------------------------------------------|
A|-------------------------------------------------|
E|-------------------------------------------------|


    E  Q    S S S S S S S S S S    E  Q    E   E   E    Q
e|------------------------------|----------------------------|
B|--8--8----6-6-8-8-6-6---------|--8--8----6--/8--/9--/11----|
G|----------------------8-8-5-5-|----------------------------|
D|------------------------------|----------------------------|
A|------------------------------|----------------------------|
E|------------------------------|----------------------------|


     T    T    T   T   T   T   T   T
     S S  S S  S S S S S S S S S S S S     E  E   E     H         E
e|--11-6-11-6-11-6-8-4-8-4-8-4-6-4-6-4-|--/6--8--10--<>11~--------L--|
B|-------------------------------------|-----------------------------|
G|-------------------------------------|-----------------------------|
D|-------------------------------------|-----------------------------|
A|-------------------------------------|-----------------------------|
E|-------------------------------------|-----------------------------|


    E  Q    S S E  E  E  E     E  Q    S S E   E     Q
e|--6--6--------6-----------|--6--6--------6--11--<>11----|
B|----------8-9----9--8-----|----------8-9----------------|
G|-----------------------8--|-----------------------------|
D|--------------------------|-----------------------------|
A|--------------------------|-----------------------------|
E|--------------------------|-----------------------------|


     T     T     T     T     T     T     T     T
     S  S  S  S  S  S  S  S  S  S  S  S  S  S  S  S
e|--23-18-23-18-23-18-23-16-23-18-23-16-23-18-23-18-|
B|--------------------------------------------------|
G|--------------------------------------------------|
D|--------------------------------------------------|
A|--------------------------------------------------|
E|--------------------------------------------------|


      E   S  S   Q      E.    E.    E        Q.      H        E
e|--/16--16-16-/18----/16---/15---/10--|--<>15~------------------|
B|-------------------------------------|-------------------------|
G|-------------------------------------|-------------------------|
D|-------------------------------------|-------------------------|
A|-------------------------------------|-------------------------|
E|-------------------------------------|-------------------------|

    W                   E  E  E  E  E  E  E  E     E  E  E  E  E  E  E  E
e|-------------------|--------------------------|--------------------------|
B|-------------------|--9--------8--------6-----|--9--------8--------6-----|
G|-------------------|-----5--5-----5--5-----5--|-----5--5-----5--5-----5--|
D|-------------------|--------------------------|--------------------------|
A|-------------------|--------------------------|--------------------------|
E|-------------------|--------------------------|--------------------------|


     T    T    T    T    T    T    T    T
     S S  S S  S S  S S  S S  S S  S S  S S
e|--11-8-11-8-11-8-11-8-11-8-11-8-11-8-11-8-|
B|------------------------------------------|
G|------------------------------------------|
D|------------------------------------------|
A|------------------------------------------|
E|------------------------------------------|


     T    T    T    T    T    T    T    T
     S S  S S  S S  S S  S S  S S  S S  S S    E  E  E  E  E  E  E  E
e|--11-8-11-8-11-8-11-8-11-8-11-8-11-8-11-8-|--------------------------|
B|------------------------------------------|--9--------8--------6-----|
G|------------------------------------------|-----8--8-----8--8-----8--|
D|------------------------------------------|--------------------------|
A|------------------------------------------|--------------------------|
E|------------------------------------------|--------------------------|


    E  E  E  E  E  E  E  E      W                   W
e|--------------------------|--------------------|-------------------|
B|--9--------8--------6-----|--11----------------|-------------------|
G|-----8--8-----8--8-----8--|--------------------|-------------------|
D|--------------------------|--------------------|-------------------|
A|--------------------------|--------------------|-------------------|
E|--------------------------|--------------------|-------------------|

    W                   W                   E  E  E  E  E  E  E  E
e|-------------------|-------------------|--------------------------|
B|-------------------|-------------------|--8--------6--------8-----|
G|-------------------|-------------------|-----8--8-----8--8-----8--|
D|-------------------|-------------------|--------------------------|
A|-------------------|-------------------|--------------------------|
E|-------------------|-------------------|--------------------------|


    W                   S S S S S S S S S S S S S S S S
e|-------------------|----------6-6-8-8---------6-6-8-8-|
B|-------------------|--6-6-9-9---------6-6-9-9---------|
G|-------------------|----------------------------------|
D|-------------------|----------------------------------|
A|-------------------|----------------------------------|
E|-------------------|----------------------------------|


    S S S S S S S S S S S S S S S S    W                   W
e|----------6-6-8-8---------6-6-8-8-|--6----------------|-------------------|
B|--6-6-9-9---------6-6-9-9---------|-------------------|-------------------|
G|----------------------------------|-------------------|-------------------|
D|----------------------------------|-------------------|-------------------|
A|----------------------------------|-------------------|-------------------|
E|----------------------------------|-------------------|-------------------|


    W                   W                   E  Q    E  E  E  E  E
e|-------------------|-------------------|-------------------------|
B|-------------------|-------------------|--8--8----6--8--6--------|
G|-------------------|-------------------|-------------------8--5--|
D|-------------------|-------------------|-------------------------|
A|-------------------|-------------------|-------------------------|
E|-------------------|-------------------|-------------------------|


               PM PM
    E  Q    E  E  E    Q        E   E  E   E   E   E   E   E
e|-------------------<>6----|--11--11--L--10--11--13--15--11--|
B|--8--8-------6--8---------|---------------------------------|
G|----------8---------------|---------------------------------|
D|--------------------------|---------------------------------|
A|--------------------------|---------------------------------|
E|--------------------------|---------------------------------|


     E   E   E   E  H             E  E  E    Q    E  E   E
e|--15--13--11--13--L--------|--<>6------------------6--11--|
B|---------------------------|-------8----------------------|
G|---------------------------|----------8--<>8----8---------|
D|---------------------------|------------------------------|
A|---------------------------|------------------------------|
E|---------------------------|------------------------------|


        E   E   E   E  E    E   S   S  E      E   E  E   E   E  E  E  E
e|--/<>15--11--15--16-----/18--16p-15-----|--11--11--6--11--11--6--------|
B|------------------------------------16--|------------------------9--8--|
G|----------------------------------------|------------------------------|
D|----------------------------------------|------------------------------|
A|----------------------------------------|------------------------------|
E|----------------------------------------|------------------------------|


    E  E    E  E  H           E  E  E  E  E  E  E  E
e|--6----------------------|--------------------------|
B|-----8-------6--L--------|-----6--8--6--8--6--------|
G|--------<>8--------------|--------------------8--5--|
D|-------------------------|--------------------------|
A|-------------------------|--------------------------|
E|-------------------------|--------------------------|


                                  T    T    T    T    T    T    T    T
    E  E  E  E  E  E    Q         S S  S S  S S  S S  S S  S S  S S  S S
e|--------------------<>6~----|--11-6-11-6-11-6--------------------------|
B|-----6--8--6--8--9----------|-----------------13-9-13-9-13-9-11-8-11-8-|
G|----------------------------|------------------------------------------|
D|----------------------------|------------------------------------------|
A|----------------------------|------------------------------------------|
E|----------------------------|------------------------------------------|


     E  E   E     H         E      E   E  E   S  S  E   E   E   E
e|--/6--8--10--<>11~--------L--|--15--15--L--15-13-15--13----------|
B|-----------------------------|---------------------------16--13--|
G|-----------------------------|-----------------------------------|
D|-----------------------------|-----------------------------------|
A|-----------------------------|-----------------------------------|
E|-----------------------------|-----------------------------------|


     E   E  E   S  S  E   E   Q
e|--15--15--L--13-15-13--15--20----|
B|---------------------------------|
G|---------------------------------|
D|---------------------------------|
A|---------------------------------|
E|---------------------------------|


     S   S  S  S  S   S  S   S  S  S  S   S  S   S  S  S
e|--18p-15----15-16p-13-15p-11----11-15p-11-13p-10----10-|
B|---------16------------------13------------------11----|
G|-------------------------------------------------------|
D|-------------------------------------------------------|
A|-------------------------------------------------------|
E|-------------------------------------------------------|


      E   S  S   Q      E.    E.    E        Q.      H        E
e|--/16--16-16-/18----/16---/15---/10--|--<>15~------------------|
B|-------------------------------------|-------------------------|
G|-------------------------------------|-------------------------|
D|-------------------------------------|-------------------------|
A|-------------------------------------|-------------------------|
E|-------------------------------------|-------------------------|


    W                   H         H            H        H
e|-------------------|-----------11--------|--10--------8--------|
B|-------------------|---------------------|---------------------|
G|-------------------|---------------------|---------------------|
D|-------------------|---------------------|---------------------|
A|-------------------|---------------------|---------------------|
E|-------------------|---------------------|---------------------|


    H         H            H         H           H         H
e|-----------15--------|--13--------11--------|-----------11--------|
B|---------------------|----------------------|---------------------|
G|---------------------|----------------------|---------------------|
D|---------------------|----------------------|---------------------|
A|---------------------|----------------------|---------------------|
E|---------------------|----------------------|---------------------|


     Q.      Q.      Q       W                   H.           Q
e|--10------11------10----|--8----------------|--L-----------------|
B|------------------------|-------------------|--------------------|
G|------------------------|-------------------|--------------------|
D|------------------------|-------------------|--------------------|
A|------------------------|-------------------|--------------------|
E|------------------------|-------------------|--------------------|


    H         H            H        H           H         H
e|-----------11--------|--10--------8--------|-----------15--------|
B|---------------------|---------------------|---------------------|
G|---------------------|---------------------|---------------------|
D|---------------------|---------------------|---------------------|
A|---------------------|---------------------|---------------------|
E|---------------------|---------------------|---------------------|


     H         H           H         H            Q.      Q.      Q
e|--13--------11--------|-----------11--------|--10------11------10----|
B|----------------------|---------------------|------------------------|
G|----------------------|---------------------|------------------------|
D|----------------------|---------------------|------------------------|
A|----------------------|---------------------|------------------------|
E|----------------------|---------------------|------------------------|


    W                   H.           Q       W
e|--8----------------|--L-----------------|-------------------|
B|-------------------|--------------------|-------------------|
G|-------------------|--------------------|-------------------|
D|-------------------|--------------------|-------------------|
A|-------------------|--------------------|-------------------|
E|-------------------|--------------------|-------------------|


     S   S  S  S  S  S  S   S  S   S  S  S  S  S  S  S
e|-----------------------------------------------------|
B|--11h-13-13-13-13-13-11h-13-16p-13-13-13-13-13-13-13-|
G|-----------------------------------------------------|
D|-----------------------------------------------------|
A|-----------------------------------------------------|
E|-----------------------------------------------------|


     S  S  S  S  S  S  S  S  S  S  S  S  S  S  S  S
e|--15-15-15-13-13-13-11-11-13-13-13-11-11-11-------|
B|--------------------------------------------15-15-|
G|--------------------------------------------------|
D|--------------------------------------------------|
A|--------------------------------------------------|
E|--------------------------------------------------|


     S   S  S  S  S  S  S   S  S   S  S  S  S  S  S  S
e|-----------------------------------------------------|
B|--11h-13-13-13-13-13-11h-13-16p-13-13-13-13-13-13-13-|
G|-----------------------------------------------------|
D|-----------------------------------------------------|
A|-----------------------------------------------------|
E|-----------------------------------------------------|


     S  S  S  S  S  S  S  S  S  S  S  S  S  S  S  S
e|--15-15-15-13-13-13-11-11-13-13-13-11-11-11-------|
B|--------------------------------------------15-15-|
G|--------------------------------------------------|
D|--------------------------------------------------|
A|--------------------------------------------------|
E|--------------------------------------------------|


     S   S  S  S  S  S  S   S  S   S  S  S  S  S  S  S
e|-----------------------------------------------------|
B|--11h-13-13-13-13-13-11h-13-16p-13-13-13-13-13-13-13-|
G|-----------------------------------------------------|
D|-----------------------------------------------------|
A|-----------------------------------------------------|
E|-----------------------------------------------------|


     S  S  S  S  S  S  S  S  S  S  S  S  S  S  S  S
e|--15-15-15-13-13-13-11-11-13-13-13-11-11-11-------|
B|--------------------------------------------15-15-|
G|--------------------------------------------------|
D|--------------------------------------------------|
A|--------------------------------------------------|
E|--------------------------------------------------|


     S   S  S  S  S  S  S   S  S   S  S  S  S  S  S  S
e|-----------------------------------------------------|
B|--11h-13-13-13-13-13-11h-13-16p-13-13-13-13-13-13-13-|
G|-----------------------------------------------------|
D|-----------------------------------------------------|
A|-----------------------------------------------------|
E|-----------------------------------------------------|


     S  S  S  S  S  S  S  S  S  S  S  S  S  S  S  S    E   E  E  E  E  E  Q
e|--15-15-15-13-13-13-11-11-13-13-13-11-11-11-------|--------------------------|
B|--------------------------------------------15-15-|--6b--8--L--9--8--6-------|
G|--------------------------------------------------|---------------------8----|
D|--------------------------------------------------|--------------------------|
A|--------------------------------------------------|--------------------------|
E|--------------------------------------------------|--------------------------|


    E  E  E  E  S S  S S Q       S  S S  S  S   S  S   S  S   S  S   S S  S S  S
e|----------------------------|--6s-8-6s-8-11s-13-11s-13-13s-15-13s-15-6s-8-6s-8-|
B|--6--6--L--8--6-------------|--------------------------------------------------|
G|----------------8p-5---5----|--------------------------------------------------|
D|---------------------8------|--------------------------------------------------|
A|----------------------------|--------------------------------------------------|
E|----------------------------|--------------------------------------------------|


    S S  S  S S S  S  S  S  S S  S S  S    E     E  E  E  S S    E.  E.  E
e|--8-8-----------------------8----8-11-<>11--|--8--8--L--6-8-<>11---6-------|
B|------11-11-6-6-11-11-11-11---11------------|--------------------------8s--|
G|--------------------------------------------|------------------------------|
D|--------------------------------------------|------------------------------|
A|--------------------------------------------|------------------------------|
E|--------------------------------------------|------------------------------|


     E.  E.  E  S  S  S  S Q       S S S S S  S  S S S S S S S  S  S S
e|------------------------------|--------------------------------------|
B|--11---8------6h-8p-6h-8------|--8-8-8-6-8-11p-8-6-8-8-8-6-8-11p-8-6-|
G|-----------8-------------5----|--------------------------------------|
D|------------------------------|--------------------------------------|
A|------------------------------|--------------------------------------|
E|------------------------------|--------------------------------------|


                               \1/
     S  S  S  S  S   S   S  S  H
e|--11----11-13-15p-13p-11--------------|
B|-----11------------------13-----------|
G|----------------------------15--------|
D|--------------------------------------|
A|--------------------------------------|
E|--------------------------------------|


     S   S  S  S  S  S  S   S  S   S  S  S  S  S  S  S
e|-----------------------------------------------------|
B|--11h-13-13-13-13-13-11h-13-16p-13-13-13-13-13-13-13-|
G|-----------------------------------------------------|
D|-----------------------------------------------------|
A|-----------------------------------------------------|
E|-----------------------------------------------------|


     S  S  S  S  S  S  S  S  S  S  S  S  S  S  S  S
e|--15-15-15-13-13-13-11-11-13-13-13-11-11-11-------|
B|--------------------------------------------15-15-|
G|--------------------------------------------------|
D|--------------------------------------------------|
A|--------------------------------------------------|
E|--------------------------------------------------|


     S   S  S  S  S  S  S   S  S   S  S  S  S  S  S  S
e|-----------------------------------------------------|
B|--11h-13-13-13-13-13-11h-13-16p-13-13-13-13-13-13-13-|
G|-----------------------------------------------------|
D|-----------------------------------------------------|
A|-----------------------------------------------------|
E|-----------------------------------------------------|


     S  S  S  S  S  S  S  S  S  S  S  S  S  S  S  S
e|--15-15-15-13-13-13-11-11-13-13-13-11-11-11-------|
B|--------------------------------------------15-15-|
G|--------------------------------------------------|
D|--------------------------------------------------|
A|--------------------------------------------------|
E|--------------------------------------------------|


     S   S  S  S  S  S  S   S  S   S  S  S  S  S  S  S
e|-----------------------------------------------------|
B|--11h-13-13-13-13-13-11h-13-16p-13-13-13-13-13-13-13-|
G|-----------------------------------------------------|
D|-----------------------------------------------------|
A|-----------------------------------------------------|
E|-----------------------------------------------------|


     S  S  S  S  S  S  S  S  S  S  S  S  S  S  S  S
e|--15-15-15-13-13-13-11-11-13-13-13-11-11-11-------|
B|--------------------------------------------15-15-|
G|--------------------------------------------------|
D|--------------------------------------------------|
A|--------------------------------------------------|
E|--------------------------------------------------|


     S   S  S  S  S  S  S   S  S   S  S  S  S  S  S  S
e|-----------------------------------------------------|
B|--11h-13-13-13-13-13-11h-13-16p-13-13-13-13-13-13-13-|
G|-----------------------------------------------------|
D|-----------------------------------------------------|
A|-----------------------------------------------------|
E|-----------------------------------------------------|


     S  S  S  S  S  S  S  S  S  S  S  S  S  S  S  S
e|--15-15-15-13-13-13-11-11-13-13-13-11-11-11-------|
B|--------------------------------------------15-15-|
G|--------------------------------------------------|
D|--------------------------------------------------|
A|--------------------------------------------------|
E|--------------------------------------------------|


    S S S S   E  S S E  E  E    E     E.  E.  E    H
e|---------------------------------|-------------------------|
B|---------------------------------|-------------------------|
G|--5-5-5-5-<>8--5-5-7--------<>7--|-------------<>7b--------|
D|----------------------8--5-------|--5---6---8--------------|
A|---------------------------------|-------------------------|
E|---------------------------------|-------------------------|


    S S S S S S S S S S S S S S S S    S S S S S S S S S S S S   Q
e|----------------------------------|--------------------------<>6~----|
B|--------------------------9-8-6-8-|------------6-8-9-8-6-8-9---------|
G|------5-7-8-7-5-7-5---7-8---------|--5---5-7-8-----------------------|
D|--7-8---------------8-------------|----8-----------------------------|
A|----------------------------------|----------------------------------|
E|----------------------------------|----------------------------------|


    E.    E.  E  E.    E.  E     S   S S   S  Q     S  S  S  Q    S
e|------<>6-------------------|--------------13----13-11-10-11------|
B|--8---------8--6---<>8---6--|-------------------------------------|
G|----------------------------|--8s-10-8s-10------------------------|
D|----------------------------|-------------------------------------|
A|----------------------------|-------------------------------------|
E|----------------------------|-------------------------------------|


     S  S  S  S S S  S S S S S S S S S S    S S S S S S S S S S S S S  S S  S
e|--13----15----8---10-------------------|--------------------------8-11-8-11-|
B|-----13----13---8----8-9-6-------------|------------------6---6-8-----------|
G|---------------------------8-5-8---5---|------5---5-8-5-8---8---------------|
D|---------------------------------8---8-|--5-8---8---------------------------|
A|---------------------------------------|------------------------------------|
E|---------------------------------------|------------------------------------|


     E   S  S  E   E   E   E   E   E      E   S  S  E   E   E   E   Q
e|--15--15-15-15--13--------------13--|--15--15-15-15--13------18--15----|
B|--------------------16--13--16------|--------------------16------------|
G|------------------------------------|----------------------------------|
D|------------------------------------|----------------------------------|
A|------------------------------------|----------------------------------|
E|------------------------------------|----------------------------------|


     E   S  S  E   E   E   E   E   E
e|--15--15-15-15--13--------------13--|
B|--------------------16--13--16------|
G|------------------------------------|
D|------------------------------------|
A|------------------------------------|
E|------------------------------------|


     S   S   S  S  S  S  S  S  S   S  S  S    Q
e|--13h-15p-13----------13-15-18p-15----15-<>15----|
B|-------------16-13-16--------------18------------|
G|-------------------------------------------------|
D|-------------------------------------------------|
A|-------------------------------------------------|
E|-------------------------------------------------|


     E   S  S  E   E   E   E   E   E      E   S  S  E   E   E   E   Q
e|--15--15-15-15--13--------------13--|--15--15-15-15--13------18--15----|
B|--------------------16--13--16------|--------------------16------------|
G|------------------------------------|----------------------------------|
D|------------------------------------|----------------------------------|
A|------------------------------------|----------------------------------|
E|------------------------------------|----------------------------------|


     E   S  S  E   E   E   E   E   E
e|--15--15-15-15--13--------------13--|
B|--------------------16--13--16------|
G|------------------------------------|
D|------------------------------------|
A|------------------------------------|
E|------------------------------------|


     S   S  S  S  S  S  S   S E   E   E   E
e|--15p-13----------13-15p-13-8--11--13--15--|
B|---------16-13-16--------------------------|
G|----------------------------5---8--10--12--|
D|-------------------------------------------|
A|-------------------------------------------|
E|-------------------------------------------|


     S   S  S  S  S  S  S   S  E   E   E  E     W
e|--15p-13----------13--------15--13--11--8--|-------------------|
B|---------16-13-16----16p-13----------------|-------------------|
G|----------------------------12--10---8--5--|-------------------|
D|-------------------------------------------|-------------------|
A|-------------------------------------------|-------------------|
E|-------------------------------------------|-------------------|


     S  S  S  S  S  S  S  S  S  S  S  S  S  S  S  S
e|--------------------------------------------------|
B|--------------------------------------------------|
G|--------------------------------------12----12-13-|
D|--13-12----12----------------12-13-15----15-------|
A|--------15----15-11----11-15----------------------|
E|--------------------15----------------------------|


     S  S  S  S  S. S. S  S  S  S  S  Q
e|-------------------------------------------|
B|--------13----13-15-16-15-16-18-16-18b~----|
G|--12-13----15------------------------------|
D|-------------------------------------------|
A|-------------------------------------------|
E|-------------------------------------------|


     S  S  S  S  S  S  S  S  S  S  S  S  S  S  S  S
e|--13----------------------13----13-15-13-15-16----|
B|-----16-15-13----13-15-16----16----------------18-|
G|--------------13----------------------------------|
D|--------------------------------------------------|
A|--------------------------------------------------|
E|--------------------------------------------------|


     S  S  S  S  S  S  S  S  H
e|--16-15-18-15-------------18b~--------|
B|--------------18-16-15-16-------------|
G|--------------------------------------|
D|--------------------------------------|
A|--------------------------------------|
E|--------------------------------------|


                                               W  W
     S  S  S  S  S  S  S  S  S  S  S  S  S  S  S  S
e|--20-18-20-16-20-15-13-------------13-15-16-18-18-|
B|-----------------------16-15-13-15----------------|
G|--------------------------------------------------|
D|--------------------------------------------------|
A|--------------------------------------------------|
E|--------------------------------------------------|


     S  S  S  S  S  S  S  S  S  S  S  S  Q
e|--18-16-18-15-18-13----------------13-16~----|
B|--------------------16-15-13-15-16-----------|
G|---------------------------------------------|
D|---------------------------------------------|
A|---------------------------------------------|
E|---------------------------------------------|


     S  S  S  S  S  S  S  S  S  S  S  S  S  S  S  S
e|--------13----13-15-13----13----------------------|
B|--13-16----16----------16----16-15-16-15-13-------|
G|--------------------------------------------15-12-|
D|--------------------------------------------------|
A|--------------------------------------------------|
E|--------------------------------------------------|


     S  S  S  S  S  S  S  S  S  S  S  S  S  S  S  S
e|--------------------------------------------------|
B|--------------------------------------------13-15-|
G|--13-15-13-12----------------------12-13-15-------|
D|--------------15-13-12----12-13-15----------------|
A|-----------------------15-------------------------|
E|--------------------------------------------------|


     Q     E    Q     E   E   E      E    E   E    E   E    E    Q
e|--20----18S--23----18--20--18--|--20S--18--15S--13-----------/15----|
B|-------------------------------|--------------------13S--11---------|
G|-------------------------------|------------------------------------|
D|-------------------------------|------------------------------------|
A|-------------------------------|------------------------------------|
E|-------------------------------|------------------------------------|


     E   E   E    E   E   E    Q           E     E   E   E   E    E   Q
e|--22--22s--6--/23--22--20s--18----|--/<>13--<>13--\1--15--13s--20--20----|
B|----------------------------------|--------------------------------------|
G|----------------------------------|--------------------------------------|
D|----------------------------------|--------------------------------------|
A|----------------------------------|--------------------------------------|
E|----------------------------------|--------------------------------------|


        (Octave pedal/Harmonizer)
        W                        W    W    W    W  W  W   W    W    W    W    W
        S                        S    S    S    S  S  S   S    S    S    S    S
e|------------------------------------------------15-20s-15------------------------|
B|-------------------------------------------<>16-----------<>16-------------------|>
G|--------------------------------------<>17---------------------<>17------<>17----|
D|---------------------------------<>17-------------------------------<>17---------|
A|--/<>15---------------------<>18-------------------------------------------------|
E|---------------------------------------------------------------------------------|


      W  W   W  W   W    W    W    W    W  T    W    W    T
      S  S   S  S   S    S    S    S    S  S    S    S    Q
e|---------/15-20s-15---------------------20-----------<>20~----|
B|------16------------<>16------<>16--------------<>16----------|
G|--/17--------------------<>17------<>17----<>17---------------|
D|--------------------------------------------------------------|
A|--------------------------------------------------------------|
E|--------------------------------------------------------------|


       T         T         T                   T         T         T
       S    S    S    S    S    S    S    S    S    S    S    S    S    S    S
e|--<>20-<>15-<>20-<>15-<>20-<>15-<>13-<>15-<>20-<>15-<>20-<>15-<>20-<>15-<>13-<>1-|
B|---------------------------------------------------------------------------------|
G|---------------------------------------------------------------------------------|
D|---------------------------------------------------------------------------------|
A|---------------------------------------------------------------------------------|
E|---------------------------------------------------------------------------------|


                                               tap bend
       T         T         T                          T
       S    S    S    S    S    S    S    S    Q      Q
e|--<>20-<>15-<>20-<>15-<>20-<>15-<>13-<>15-<>17b-----L----|
B|---------------------------------------------------------|
G|---------------------------------------------------------|
D|---------------------------------------------------------|
A|---------------------------------------------------------|
E|---------------------------------------------------------|


     S. S. S  S  S  S  S  S  S  S  S  S  S  S  S      E   Q     E   E   E   Q
e|-----------------------------------10-12-13-15-|--/18--18----20--18------------|
B|-----------------------------11-13-------------|---------------------20--16----|
G|-----------------10-12-10-12-------------------|-------------------------------|
D|-----------10-12-------------------------------|-------------------------------|
A|--10-11-13-------------------------------------|-------------------------------|
E|-----------------------------------------------|-------------------------------|


   T        T        T        T        T        T        T        T
   |--3--|  |--3--|  |--3--|  |--3--|  |--3--|  |--3--|  |--3--|  |--3--|
   S  S  S  S  S  S  S  S  S  S  S  S  S  S  S  S  S  S  S  S  S  S  S  S
--20-15-11-20-11-15-20-15-11-20-11-15-20-15-11-20-11-15-20-15-11-20-11-15-|
--------------------------------------------------------------------------|
--------------------------------------------------------------------------|
--------------------------------------------------------------------------|
--------------------------------------------------------------------------|
--------------------------------------------------------------------------|


     S  S  S  S  E   E    E    E   E   E
e|--20-20-20-20-18--15s--18s--15------15--|
B|--------------------------------18------|
G|----------------------------------------|
D|----------------------------------------|
A|----------------------------------------|
E|----------------------------------------|


     T     T     T     T     T     T     T     T     T     T     T     T     T
     T  T  T  T  T  T  T  T  T  T  T  T  T  T  T  T  T  T  T  T  T  T  T  T  T  T
e|--20-11-20-11-18-11-18-11-20-11-20-11-16-11-16-11-20-11-20-11-18-11-18-11-20-11-|
B|--------------------------------------------------------------------------------|
G|--------------------------------------------------------------------------------|
D|--------------------------------------------------------------------------------|
A|--------------------------------------------------------------------------------|
E|--------------------------------------------------------------------------------|


     S   S  S  S  S  S  S  S  S  S  S  S  E   E
e|--20p-16----------------16-18-16-18-20-23------|
B|---------16----------16--------------------21--|
G|------------17----17---------------------------|
D|---------------18------------------------------|
A|-----------------------------------------------|
E|-----------------------------------------------|


     S  S  S  S  S  S  S  S  H               S S  S  S  S  S  S  S  H
e|-----18----18----22----22-22pbr--------|----------------------10-16pbr~--------|
B|--18----18----18----18-----------------|-------------10-11-13------------------|
G|---------------------------------------|-----8-10-12---------------------------|
D|---------------------------------------|--12-----------------------------------|
A|---------------------------------------|---------------------------------------|
E|---------------------------------------|---------------------------------------|


     H           Q.        S  S     E   E   E   E   Q.      S   S
e|------------------------------|---------------------------------|
B|--18b~--------18b~------18-16-|--18--16-------------------------|
G|------------------------------|----------17--15~--L-------------|
D|------------------------------|--------------------------15h-17-|
A|------------------------------|---------------------------------|
E|------------------------------|---------------------------------|


     E   E   E   E   E   E   E   E      E   E   E   E     H
e|----------------------------------|-------------------------------|
B|----------------------------------|------16--18------<>16~--------|
G|--15--------------------------15--|--17----------15---------------|
D|------17--16--15------15--17------|-------------------------------|
A|------------------18--------------|-------------------------------|
E|----------------------------------|-------------------------------|


    Q     Q     E  E   E   E      Q.        Q     Q     E
e|-------15----16-----18--16--|--18br------18----16----15--|
B|----------------------------|----------------------------|
G|----------------------------|----------------------------|
D|----------------------------|----------------------------|
A|----------------------------|----------------------------|
E|----------------------------|----------------------------|


     E    E   E   E   E   E   E   E     Q     E   E   E.     S  Q
e|--16p--15--------------------------|-------------------------------|
B|-----------16--------------18--16--|--L----18--16--18br---16-------|
G|---------------15------15----------|-------------------------15----|
D|-------------------17--------------|-------------------------------|
A|-----------------------------------|-------------------------------|
E|-----------------------------------|-------------------------------|


     E   E   E   E  E   E   E   E     E   E   E   E   S   S  S  S  Q
e|------18-------------15----------|---------11--13--15p-13----13-18----|
B|--16------16--13--L------13--11--|--9--11-----------------16----------|
G|---------------------------------|------------------------------------|
D|---------------------------------|------------------------------------|
A|---------------------------------|------------------------------------|
E|---------------------------------|------------------------------------|


       whammy bar
       Q          Q        Q        Q         Q.       H          E
e|----------------------------------------|--13b------15br--------L--|
B|----------------------------------------|--------------------------|
G|--<>15b---------------------------------|--------------------------|
D|-------------<>15b----<>13b-------------|--------------------------|
A|-------------------------------<>15b----|--------------------------|
E|----------------------------------------|--------------------------|


                     |--3--|                    |--3--|
   S  S  S  S  S  S  S  S  S  S  S  S  S  S  S  S  S  S
--20-16----------16-20-16----20-16----------16-20-16----|
--------20-16-20----------20-------20-16-20----------20-|
--------------------------------------------------------|
--------------------------------------------------------|
--------------------------------------------------------|
--------------------------------------------------------|


                 T        T        T
     S  S  S  S  S  S  S  S  S  S  S  S  E   E
e|--20-16---------------------------------------|
B|--------20-16---------------------------------|
G|--------------19-17-15------------------------|
D|-----------------------18-15-13-15-18-17--15--|
A|----------------------------------------------|
E|----------------------------------------------|


     E   S  S  S  S  S  S  S  S  S  S  S  S  S  S
e|---------------18-16-15-------------------------|
B|------------16----------18-16-15----------------|
G|---------15----------------------17-15-13-------|
D|------17----------------------------------17-15-|
A|--18--------------------------------------------|
E|------------------------------------------------|


     S  S  S  S  S  S  S  S  S  S  S  S  S  S  E       Q.      Q       E.  S  E
e|------------------------------------------------|------------------------------|
B|-----------------13-15-16-15-13----------13-15--|--/16------16----<>13-----13--|
G|--------12-13-15----------------15-13-15--------|------------------------------|
D|--13-15-----------------------------------------|------------------------------|
A|------------------------------------------------|------------------------------|
E|------------------------------------------------|------------------------------|


     E   E  E     Q      Q     E      S   S  S  S  S   S   S  S  H
e|------13-----<>15~--------------|----------------------------------------|
B|--16------------------16----15--|--13p-11--------------------------------|
G|--------------------------------|---------12----10h-12p-10----10b--------|
D|--------------------------------|------------13------------13------------|
A|--------------------------------|----------------------------------------|
E|--------------------------------|----------------------------------------|


     E  E   E    E   H             E   E   E   E   E   E   E   E
e|----------------------------|--/15--15--11--15--15--11--15--11--|
B|----------------------------|-----------------------------------|
G|--10--8--12--<>8~--L--------|-----------------------------------|
D|----------------------------|-----------------------------------|
A|----------------------------|-----------------------------------|
E|----------------------------|-----------------------------------|


     E   E  E   E  E   E     Q
e|--15--16-----15-----11--<>11~----|
B|---------------------------------|
G|---------------------------------|
D|---------------------------------|
A|---------------------------------|
E|---------------------------------|


     S  S  S  S  S  S  S  S  S  S  S  S  S  S  S  S
e|--------------------------------------------------|
B|--------------------------------------------------|
G|--------------12-------12-13----12-13-15-12-13-15-|
D|--------13-15----13-15-------15-------------------|
A|--15-17-------------------------------------------|
E|--------------------------------------------------|


     T     T                 T     T
     S  S  S  S  S  S  S  S  S  S  S  S  S  S  S  S
e|--------------15-13-------------------18-15-------|
B|--16-13-18-13-------16-13-18-15-20-15-------16-13-|
G|--------------------------------------------------|
D|--------------------------------------------------|
A|--------------------------------------------------|
E|--------------------------------------------------|


     S  S  S  S  S  S  S  S  S  S  S  S  S  S  S  S
e|--------------------------------------------------|
B|--------------------------------------------------|
G|--20-20-------22-22-------24-24-------22-22-------|
D|--------22-22-------22-22-------22-22-------22-22-|
A|--------------------------------------------------|
E|--------------------------------------------------|


   T       T       T       T       T       T       T       T
   |--3-|  |--3-|  |--3-|  |--3-|  |--3-|  |--3-|  |--3-|  |--3-|
   S  S S  S  S S  S  S S  S  S S  S  S S  S  S S  S  S S  S  S S
--16-11-8-16-11-8-16-11-8-16-11-8-16-11-8-16-11-8-16-11-8-16-11-8-|
------------------------------------------------------------------|
------------------------------------------------------------------|
------------------------------------------------------------------|
------------------------------------------------------------------|
------------------------------------------------------------------|


     S  S  S  S  S  S  S  S  S  S  S  S  S  S  S  S
e|-----------11-13-15-13-11-13-11-------------------|
B|--13-11-13----------------------13-11----------11-|
G|--------------------------------------12-10-12----|
D|--------------------------------------------------|
A|--------------------------------------------------|
E|--------------------------------------------------|


     S  S  S  S  S  S  S  S  S  S  S  S    Q         E   E   E   E  E   Q     E
e|----------------------------------------------|--/11--10--11--10---------------|
B|--13-13-11----11-11---------------------------|----------------------11----11--|
G|-----------12-------12-12-10-12-10------------|--------------------------------|
D|-----------------------------------13-<>13----|--------------------------------|
A|----------------------------------------------|--------------------------------|
E|----------------------------------------------|--------------------------------|


       Q.         E   E   E     Q
e|------------------------------------|
B|--<>15brb---------------------------|
G|---------------12--10---------------|
D|-----------------------13--<>13~----|
A|------------------------------------|
E|------------------------------------|


                             T  W  T  W  T  W  T  W
     S  S  S  S  S  S  S  S  S  S  S  S  S  S  S  S
e|--------------------------------------------------|
B|--------------------------------------------------|
G|--------------12-13-15-17-17-12-17-12-17-12-17-12-|
D|-----12-13-15-------------------------------------|
A|--15----------------------------------------------|
E|--------------------------------------------------|

 
     whammy bar dive
     T                     T        T        T        T        T        T        T
     |---------3--------|  |--3--|  |--3--|  |--3--|  |--3--|  |--3--|  |--3--|  |
     S               S  S  S  S  S  S  S  S  S  S  S  S  S  S  S  S  S  S  S  S  S
e|--20--------------16-15-20-16-15-20-16-15-20-16-15-20-16-15-20-16-15-20-16-15-20-|
B|---------------------------------------------------------------------------------|
G|---------------------------------------------------------------------------------|
D|---------------------------------------------------------------------------------|
A|---------------------------------------------------------------------------------|
E|---------------------------------------------------------------------------------|


    W                   W                   W                   W
e|-------------------|-------------------|-------------------|-------------------|
B|-------------------|-------------------|-------------------|-------------------|
G|-------------------|-------------------|-------------------|-------------------|
D|-------------------|-------------------|-------------------|-------------------|
A|-------------------|-------------------|-------------------|-------------------|
E|-------------------|-------------------|-------------------|-------------------|


    W                   W                   W                   W
e|-------------------|-------------------|-------------------|-------------------|
B|-------------------|-------------------|-------------------|-------------------|
G|-------------------|-------------------|-------------------|-------------------|
D|-------------------|-------------------|-------------------|-------------------|
A|-------------------|-------------------|-------------------|-------------------|
E|-------------------|-------------------|-------------------|-------------------|


    W                   W                   W                   W
e|-------------------|-------------------|-------------------|-------------------|
B|-------------------|-------------------|-------------------|-------------------|
G|-------------------|-------------------|-------------------|-------------------|
D|-------------------|-------------------|-------------------|-------------------|
A|-------------------|-------------------|-------------------|-------------------|
E|-------------------|-------------------|-------------------|-------------------|


    W                   W
e|-------------------|-------------------|
B|-------------------|-------------------|
G|-------------------|-------------------|
D|-------------------|-------------------|
A|-------------------|-------------------|
E|-------------------|-------------------|


       S  S    S   S    S  S    S   S    S  S    S   S    S  S    S S
e|--<>15-15s-<>3-<>3-<>15-15s-<>3-<>3-<>15-15s-<>3-<>3-<>15-15s-<>3-3s-|
B|---------------------------------------------------------------------|
G|---------------------------------------------------------------------|
D|---------------------------------------------------------------------|
A|---------------------------------------------------------------------|
E|---------------------------------------------------------------------|


     H.           Q       W                   W
e|--15-----------------|-------------------|-------------------|
B|---------------------|-------------------|-------------------|
G|---------------------|-------------------|-------------------|
D|---------------------|-------------------|-------------------|
A|---------------------|-------------------|-------------------|
E|---------------------|-------------------|-------------------| 


     S  S  S  S S S  S  S  S  S S S  S  S S S
e|--11-11-11-11-8-8-11-11-11-11-8-8-11-11-8-8-|
B|--------------------------------------------|
G|--------------------------------------------|
D|--------------------------------------------|
A|--------------------------------------------|
E|--------------------------------------------|


     S  S  S  S S S  S  S  S  S S S  S  S S S
e|--11-11-11-11-8-8-11-11-11-11-8-8-11-11-8-8-|
B|--------------------------------------------|
G|--------------------------------------------|
D|--------------------------------------------|
A|--------------------------------------------|
E|--------------------------------------------|


     S  S  S  S  S  S  S  S  S  S  S  S  S  S  S  S
e|--15-15-15-15-11-11-15-15-15-15-11-11-15-15-11-11-|
B|--------------------------------------------------|
G|--------------------------------------------------|
D|--------------------------------------------------|
A|--------------------------------------------------|
E|--------------------------------------------------|


     S  S  S  S  S  S  S  S  S  S  S  S  S  S  S  S
e|--15-15-15-15-11-11-15-15-15-15-11-11-15-15-11-11-|
B|--------------------------------------------------|
G|--------------------------------------------------|
D|--------------------------------------------------|
A|--------------------------------------------------|
E|--------------------------------------------------|


     S  S  S  S S S  S  S  S  S S S  S  S S S
e|--13-13-13-13-8-8-13-13-13-13-8-8-13-13-8-8-|
B|--------------------------------------------|
G|--------------------------------------------|
D|--------------------------------------------|
A|--------------------------------------------|
E|--------------------------------------------|


     S  S  S  S S S  S  S  S  S S S  S  S S S
e|--13-13-13-13-8-8-13-13-13-13-8-8-13-13-8-8-|
B|--------------------------------------------|
G|--------------------------------------------|
D|--------------------------------------------|
A|--------------------------------------------|
E|--------------------------------------------|


     S  S  S  S S S  S  S  S  S S S  S  S S S
e|--11-11-11-11-8-8-11-11-11-11-8-8-11-11-8-8-|
B|--------------------------------------------|
G|--------------------------------------------|
D|--------------------------------------------|
A|--------------------------------------------|
E|--------------------------------------------|


    S  S  S S  S S  S S  S  S  S S  S S  S S
e|-------------------------------------------|
B|-------------------------------------------|
G|----------8----8-10-8-10-12-10-8-10-8------|
D|--8-10-12---12------------------------10-8-|
A|-------------------------------------------|
E|-------------------------------------------|


     S  S  S  S S S  S  S  S  S S S  S  S S S
e|--11-11-11-11-8-8-11-11-11-11-8-8-11-11-8-8-|
B|--------------------------------------------|
G|--------------------------------------------|
D|--------------------------------------------|
A|--------------------------------------------|
E|--------------------------------------------|


     S  S  S  S S S  S  S  S  S S S  S  S S S
e|--11-11-11-11-8-8-11-11-11-11-8-8-11-11-8-8-|
B|--------------------------------------------|
G|--------------------------------------------|
D|--------------------------------------------|
A|--------------------------------------------|
E|--------------------------------------------|


     S  S  S  S  S  S  S  S  S  S  S  S  S  S  S  S
e|--15-15-15-15-11-11-15-15-15-15-11-11-15-15-11-11-|
B|--------------------------------------------------|
G|--------------------------------------------------|
D|--------------------------------------------------|
A|--------------------------------------------------|
E|--------------------------------------------------|


     S  S  S  S  S  S  S  S  S  S  S  S  S  S  S  S
e|--15-15-15-15-11-11-15-15-15-15-11-11-15-15-11-11-|
B|--------------------------------------------------|
G|--------------------------------------------------|
D|--------------------------------------------------|
A|--------------------------------------------------|
E|--------------------------------------------------|


     S  S  S  S S S  S  S  S  S S S  S  S S S
e|--13-13-13-13-8-8-13-13-13-13-8-8-13-13-8-8-|
B|--------------------------------------------|
G|--------------------------------------------|
D|--------------------------------------------|
A|--------------------------------------------|
E|--------------------------------------------|


     S  S  S  S S S  S  S  S  S S S  S  S S S
e|--13-13-13-13-8-8-13-13-13-13-8-8-13-13-8-8-|
B|--------------------------------------------|
G|--------------------------------------------|
D|--------------------------------------------|
A|--------------------------------------------|
E|--------------------------------------------|


               |---3---|
   S  S  S  S  S   S   S  S  S  S  S  S  S  S  S  S  S
e|--------------15h-16p-15-------------------------------|
B|-----------16------------16----16----------------------|
G|--------17------------------17----17----17-------------|
D|-----17------------------------------17----17----17----|
A|--18------------------------------------------18----18-|
E|-------------------------------------------------------|


                            |---3--|  |---3--|  |---3--|
    S  S  S  S  S  S  S  S  S   S  S  S   S  S  S   S  S  S   S
e|--------------------15----16p-15----16p-15----16p-15----16p-15-|
B|--------------16-------16--------16--------16--------16--------|
G|-----------17----17--------------------------------------------|
D|--------17-----------------------------------------------------|
A|--15-18--------------------------------------------------------|
E|---------------------------------------------------------------|


     PM  PM  PM  PM  PM  PM  PM  PM     PM  PM  PM  PM  PM  PM  PM  PM
     E   E   E   E   E   E   E   E      E   E   E   E   E   E   E   E
e|--15--18--18--15--18--18--15--18--|--18--15--15--18--18--15----------|
B|----------------------------------|--------------------------18--16--|
G|----------------------------------|----------------------------------|
D|----------------------------------|----------------------------------|
A|----------------------------------|----------------------------------|
E|----------------------------------|----------------------------------|


     PM  PM  PM  PM  PM  PM  PM  PM     PM  PM  PM  PM  PM  PM  PM  PM
     E   E   E   E   E   E   E   E      E   E   E   E   E   E   E   E
e|--13--15--15--13--15--15--13--15--|--15--13--15--15--16--15--13------|
B|----------------------------------|------------------------------16--|
G|----------------------------------|----------------------------------|
D|----------------------------------|----------------------------------|
A|----------------------------------|----------------------------------|
E|----------------------------------|----------------------------------|


     E   E   E   E  E   E  E   E     E   E  E   E   E   E   E  E
e|--13--13--13--13-----13-----13--|-----13-----13--13--13--13-----|
B|--------------------------------|-------------------------------|
G|--------------------------------|-------------------------------|
D|--------------------------------|-------------------------------|
A|--------------------------------|-------------------------------|
E|--------------------------------|-------------------------------|


     S   S   S   S   S   S   S   S   S   S   S   S   S   S   S   S
e|--18p-15h-18p-15h-18p-15h-18p-15h-18p-15h-18p-15h-18p-15h-18p-15-|
B|-----------------------------------------------------------------|
G|-----------------------------------------------------------------|
D|-----------------------------------------------------------------|
A|-----------------------------------------------------------------|
E|-----------------------------------------------------------------|


     S   S   S   S   S   S   S   S   S   S   S   S   S   S   S   S
e|--18p-15h-18p-15h-18p-15h-18p-15h-18p-15h-18p-15h-18p-15h-18p-15-|
B|-----------------------------------------------------------------|
G|-----------------------------------------------------------------|
D|-----------------------------------------------------------------|
A|-----------------------------------------------------------------|
E|-----------------------------------------------------------------|


     S   S   S   S   S   S   S   S   S   S   S   S   S   S   S   S
e|--18p-15h-18p-15h-18p-15h-18p-15h-18p-15h-18p-15h-18p-15h-18p-15-|
B|-----------------------------------------------------------------|
G|-----------------------------------------------------------------|
D|-----------------------------------------------------------------|
A|-----------------------------------------------------------------|
E|-----------------------------------------------------------------|


     S   S   S   S   S   S   S   S   S   S   S   S   S   S   S   S
e|--18p-15h-18p-15h-18p-15h-18p-15h-18p-15h-18p-15h-18p-15h-18p-15-|
B|-----------------------------------------------------------------|
G|-----------------------------------------------------------------|
D|-----------------------------------------------------------------|
A|-----------------------------------------------------------------|
E|-----------------------------------------------------------------|


     S   S   S   S   S   S   S   S   S   S   S   S   S   S   S   S
e|--18p-15h-18p-15h-18p-15h-18p-15h-18p-15h-18p-15h-18p-15h-18p-15-|
B|-----------------------------------------------------------------|
G|-----------------------------------------------------------------|
D|-----------------------------------------------------------------|
A|-----------------------------------------------------------------|
E|-----------------------------------------------------------------|


     S   S   S   S   S   S   S   S   S   S   S   S   S   S   S   S
e|--18p-15h-18p-15h-18p-15h-18p-15h-18p-15h-18p-15h-18p-15h-18p-15-|
B|-----------------------------------------------------------------|
G|-----------------------------------------------------------------|
D|-----------------------------------------------------------------|
A|-----------------------------------------------------------------|
E|-----------------------------------------------------------------|


     PM  PM  PM  PM  PM  PM  PM  PM
     E   E   E   E   E   E   E   E        H         H
e|--16--15--13------15--13----------|--<>15b--------------------|
B|--------------16----------16--15--|---------------------------|
G|--13--12--10------12--10----------|---------------7pbr--------|
D|--------------13----------13--12--|---------------------------|
A|----------------------------------|---------------------------|
E|----------------------------------|---------------------------|


                       |-----3-----|
   S   S   E   E   E   Q     Q     Q          Q.      H        E
e|--11h-13p-11----------------------------|-------------------------||
B|--------------13--11--------11----13----|--<>13~------------------||
G|----------------------12----------------|-------------------------||
D|----------------------------------------|-------------------------||
A|----------------------------------------|-------------------------||
E|----------------------------------------|-------------------------|| 


[Lead Guitar 2] 

    W                    S  S  S  S S S  S  S  S  S S S  S  S S S
e|-------------------|--------------------------------------------|
B|-------------------|--13-13-13-13-8-8-13-13-13-13-8-8-13-13-8-8-|
G|-------------------|--------------------------------------------|
D|-------------------|--------------------------------------------|
A|-------------------|--------------------------------------------|
E|-------------------|--------------------------------------------|


     S  S  S  S S S  S  S  S  S S S  S  S S S
e|--------------------------------------------|
B|--13-13-13-13-8-8-13-13-13-13-8-8-13-13-8-8-|
G|--------------------------------------------|
D|--------------------------------------------|
A|--------------------------------------------|
E|--------------------------------------------|


     S  S  S  S  S  S  S  S  S  S  S  S  S  S  S  S
e|--------------------------------------------------|
B|--16-16-16-16-13-13-16-16-16-16-13-13-16-16-13-13-|
G|--------------------------------------------------|
D|--------------------------------------------------|
A|--------------------------------------------------|
E|--------------------------------------------------|


     S  S  S  S  S  S  S  S  S  S  S  S  S  S  S  S
e|--------------------------------------------------|
B|--16-16-16-16-13-13-16-16-16-16-13-13-16-16-13-13-|
G|--------------------------------------------------|
D|--------------------------------------------------|
A|--------------------------------------------------|
E|--------------------------------------------------|


     S  S  S  S S S  S  S  S  S S S  S  S S S
e|--------------------------------------------|
B|--13-13-13-13-9-9-13-13-13-13-9-9-13-13-9-9-|
G|--------------------------------------------|
D|--------------------------------------------|
A|--------------------------------------------|
E|--------------------------------------------|


     S  S  S  S S S  S  S  S  S S S  S  S S S
e|--------------------------------------------|
B|--13-13-13-13-9-9-13-13-13-13-9-9-13-13-9-9-|
G|--------------------------------------------|
D|--------------------------------------------|
A|--------------------------------------------|
E|--------------------------------------------|


     S  S  S  S S S  S  S  S  S S S  S  S S S
e|--------------------------------------------|
B|--13-13-13-13-8-8-13-13-13-13-8-8-13-13-8-8-|
G|--------------------------------------------|
D|--------------------------------------------|
A|--------------------------------------------|
E|--------------------------------------------|


    S  S  S  S  S  S  S  S   E    E    Q
e|-------------------------------------------|
B|--8-11-13-15-11-13-15-16-/13--/15--/16~----|
G|-------------------------------------------|
D|-------------------------------------------|
A|-------------------------------------------|
E|-------------------------------------------|


     S  S  S  S S S  S  S  S  S S S  S  S S S
e|--------------------------------------------|
B|--13-13-13-13-8-8-13-13-13-13-8-8-13-13-8-8-|
G|--------------------------------------------|
D|--------------------------------------------|
A|--------------------------------------------|
E|--------------------------------------------|


     S  S  S  S S S  S  S  S  S S S  S  S S S
e|--------------------------------------------|
B|--13-13-13-13-8-8-13-13-13-13-8-8-13-13-8-8-|
G|--------------------------------------------|
D|--------------------------------------------|
A|--------------------------------------------|
E|--------------------------------------------|


     S  S  S  S  S  S  S  S  S  S  S  S  S  S  S  S
e|--------------------------------------------------|
B|--16-16-16-16-13-13-16-16-16-16-13-13-16-16-13-13-|
G|--------------------------------------------------|
D|--------------------------------------------------|
A|--------------------------------------------------|
E|--------------------------------------------------|


     S  S  S  S  S  S  S  S  S  S  S  S  S  S  S  S
e|--------------------------------------------------|
B|--16-16-16-16-13-13-16-16-16-16-13-13-16-16-13-13-|
G|--------------------------------------------------|
D|--------------------------------------------------|
A|--------------------------------------------------|
E|--------------------------------------------------|


     S  S  S  S S S  S  S  S  S S S  S  S S S
e|--------------------------------------------|
B|--13-13-13-13-9-9-13-13-13-13-9-9-13-13-9-9-|
G|--------------------------------------------|
D|--------------------------------------------|
A|--------------------------------------------|
E|--------------------------------------------|


     S  S  S  S S S  S  S  S  S S S  S  S S S
e|--------------------------------------------|
B|--13-13-13-13-9-9-13-13-13-13-9-9-13-13-9-9-|
G|--------------------------------------------|
D|--------------------------------------------|
A|--------------------------------------------|
E|--------------------------------------------|


                                                      /1
     S  S  S  S S  S  S S   S  S  S  S S  S  S S      W
e|-----------------------------------------------|----------------------|
B|--13p-9---------------9--13p-9---------------9-|--(18)----------------|
G|--------10----8-10-12----------10----8-10-12---|----------------------|
D|-----------10---------------------10-----------|--(15)----------------|
A|-----------------------------------------------|----------------------|
E|-----------------------------------------------|----------------------| 


     E  E  E  E  E  E  E  E      E  E  E  E  E  E  E  E
e|---------------------------|---------------------------|
B|---------------------------|---------------------------|
G|--10--------8--------7-----|--10--------8--------7-----|
D|------6--6-----6--6-----6--|------6--6-----6--6-----6--|
A|---------------------------|---------------------------|
E|---------------------------|---------------------------|


     T     T     T     T     T     T     T     T
     S  S  S  S  S  S  S  S  S  S  S  S  S  S  S  S
e|--15-11-15-11-15-11-15-11-15-11-15-11-15-11-15-11-|
B|--------------------------------------------------|
G|--------------------------------------------------|
D|--------------------------------------------------|
A|--------------------------------------------------|
E|--------------------------------------------------|


     T     T     T     T     T     T     T     T
     S  S  S  S  S  S  S  S  S  S  S  S  S  S  S  S
e|--15-11-15-11-15-11-15-11-15-11-15-11-15-11-15-11-|
B|--------------------------------------------------|
G|--------------------------------------------------|
D|--------------------------------------------------|
A|--------------------------------------------------|
E|--------------------------------------------------|


     E   E   E  E   E   E  E   E      E   E   E  E   E   E  E   E
e|--------------------------------|--------------------------------|
B|--------------------------------|--------------------------------|
G|--10----------8----------7------|--10----------8----------7------|
D|------10--10-----10--10-----10--|------10--10-----10--10-----10--|
A|--------------------------------|--------------------------------|
E|--------------------------------|--------------------------------|


     W                   E   E   E    E    E    E    E    E     W
e|--------------------|--------------------------------------|-------------------|
B|--------------------|--------------------------------------|-------------------|
G|--10----------------|--5S--7S--8S--10S--12S--13S--15S--20--|-------------------|
D|--------------------|--------------------------------------|-------------------|
A|--------------------|--------------------------------------|-------------------|
E|--------------------|--------------------------------------|-------------------| 


    W                   E   E   E  E   E   E  E   E      W
e|-------------------|-------------------------------|--------------------|
B|-------------------|-------------------------------|--------------------|
G|-------------------|--8----------7----------8------|--12----------------|
D|-------------------|-----10--10-----10--10-----10--|--------------------|
A|-------------------|-------------------------------|--------------------|
E|-------------------|-------------------------------|--------------------|


    S S  S  S S S S S S S  S  S S S S S    S S  S  S S S S S S S  S  S S S S S
e|--------------------------------------|--------------------------------------|
B|------------8-8-9-9-----------8-8-9-9-|------------8-8-9-9-----------8-8-9-9-|
G|--5-5-10-10---------5-5-10-10---------|--5-5-10-10---------5-5-10-10---------|
D|--------------------------------------|--------------------------------------|
A|--------------------------------------|--------------------------------------|
E|--------------------------------------|--------------------------------------|


    W                    W                    W
e|-------------------|--16b----------------|-------------------|
B|--6----------------|---------------------|-------------------|
G|-------------------|---------------------|-------------------|
D|-------------------|---------------------|-------------------|
A|-------------------|---------------------|-------------------|
E|-------------------|---------------------|-------------------| 


                                                              PM PM
    W                   E  Q    E  E  E  E  E     E  Q     E  E  E    Q
e|-------------------|-------------------------|---------------------------|
B|-------------------|-------------------------|--------------------<>8----|
G|-------------------|--8--8----7--8--7--------|--8--8--------7--8---------|
D|-------------------|-------------------8--5--|----------10---------------|
A|-------------------|-------------------------|---------------------------|
E|-------------------|-------------------------|---------------------------|


    E  Q    S S S S  S  S  S  S S S     E   E   E   H         E
e|----------------------------------|--------------13~--------L--|
B|----------------------------------|----------11----------------|
G|--8--8----7-7-8-8-10-10-12-12-8-8-|--12--12--------------------|
D|----------------------------------|----------------------------|
A|----------------------------------|----------------------------|
E|----------------------------------|----------------------------|


    E  E  E    Q    E  E   E         E   E   E   E  E    E   S   S  E
e|----------------------------|----------------------------------------|
B|--8------------------8--11--|--/<>16--11--16--18-----/20--18p-16-----|
G|-----8----------------------|------------------------------------15--|
D|--------8--<>8----8---------|----------------------------------------|
A|----------------------------|----------------------------------------|
E|----------------------------|----------------------------------------|


      E   E    E    E   E   E   E    E
e|--/18--18s--15S--18--18--15--18s--15--|
B|--------------------------------------|
G|--------------------------------------|
D|--------------------------------------|
A|--------------------------------------|
E|--------------------------------------|


     T     T     T     T     T     T     T
     S  S  S  S  S  S  S  S  S  S  S  S  S  S   E
e|-------------------------------------------------|
B|--20-18-20-18-20-18-20-18-20-16-21-18-20-16s-11--|
G|-------------------------------------------------|
D|-------------------------------------------------|
A|-------------------------------------------------|
E|-------------------------------------------------|


    E  Q    S S S S S S S S S S    E  Q    E   E    E    Q
e|------------------------------|-----------------------------|
B|------------------------------|-----------------------------|
G|--8--8----7-7-8-8-7-7---------|--8--8----7--/8--/10--/12----|
D|----------------------8-8-5-5-|-----------------------------|
A|------------------------------|-----------------------------|
E|------------------------------|-----------------------------|


     T    T    T   T   T   T   T   T
     S S  S S  S S S S S S S S S S S S      E   E   E   H         E
e|-------------------------------------|---------------13~--------L--|
B|--11-8-11-8-11-8-9-4-9-4-9-4-8-4-8-4-|-----------11----------------|
G|-------------------------------------|--/12--12--------------------|
D|-------------------------------------|-----------------------------|
A|-------------------------------------|-----------------------------|
E|-------------------------------------|-----------------------------|


    E  Q    S  S E   E  E  E     E  Q    S  S E   E     Q
e|----------------------------|------------------------------|
B|--8--8---------8------------|--8--8---------8--11--<>11----|
G|----------8-10----10--8-----|----------8-10----------------|
D|-------------------------8--|------------------------------|
A|----------------------------|------------------------------|
E|----------------------------|------------------------------|


     T     T     T     T     T     T     T     T
     S  S  S  S  S  S  S  S  S  S  S  S  S  S  S  S
e|--20-15-20-15-20-15-20-13-20-15-20-13-20-15-20-15-|
B|--------------------------------------------------|
G|--------------------------------------------------|
D|--------------------------------------------------|
A|--------------------------------------------------|
E|--------------------------------------------------|


      E   S  S   Q      E.    E.    E        Q.      H        E
e|-------------------------------------|-------------------------|
B|--/18--18-18-/20----/18---/16---/11--|--<>16~------------------|
G|-------------------------------------|-------------------------|
D|-------------------------------------|-------------------------|
A|-------------------------------------|-------------------------|
E|-------------------------------------|-------------------------| 


    W                    E  E  E  E  E  E  E  E      E  E  E  E  E  E  E  E
e|-------------------|---------------------------|---------------------------|
B|-------------------|---------------------------|---------------------------|
G|-------------------|--10--------8--------7-----|--10--------8--------7-----|
D|-------------------|------6--6-----6--6-----6--|------6--6-----6--6-----6--|
A|-------------------|---------------------------|---------------------------|
E|-------------------|---------------------------|---------------------------|


     T     T     T     T     T     T     T     T
     S  S  S  S  S  S  S  S  S  S  S  S  S  S  S  S
e|--15-11-15-11-15-11-15-11-15-11-15-11-15-11-15-11-|
B|--------------------------------------------------|
G|--------------------------------------------------|
D|--------------------------------------------------|
A|--------------------------------------------------|
E|--------------------------------------------------|


     T     T     T     T     T     T     T     T
     S  S  S  S  S  S  S  S  S  S  S  S  S  S  S  S
e|--15-11-15-11-15-11-15-11-15-11-15-11-15-11-15-11-|
B|--------------------------------------------------|
G|--------------------------------------------------|
D|--------------------------------------------------|
A|--------------------------------------------------|
E|--------------------------------------------------|


     E   E   E  E   E   E  E   E      E   E   E  E   E   E  E   E
e|--------------------------------|--------------------------------|
B|--------------------------------|--------------------------------|
G|--10----------8----------7------|--10----------8----------7------|
D|------10--10-----10--10-----10--|------10--10-----10--10-----10--|
A|--------------------------------|--------------------------------|
E|--------------------------------|--------------------------------|


     W                   W                   W
e|--------------------|-------------------|-------------------|
B|--------------------|-------------------|-------------------|
G|--10----------------|-------------------|-------------------|
D|--------------------|-------------------|-------------------|
A|--------------------|-------------------|-------------------|
E|--------------------|-------------------|-------------------| 


    W                   E   E   E  E   E   E  E   E     W
e|-------------------|-------------------------------|-------------------|
B|-------------------|-------------------------------|-------------------|
G|-------------------|--8----------7----------8------|-------------------|
D|-------------------|-----10--10-----10--10-----10--|-------------------|
A|-------------------|-------------------------------|-------------------|
E|-------------------|-------------------------------|-------------------|


    S S  S  S S S S S S S  S  S S S S S    S S  S  S S S S S S S  S  S S S S S
e|--------------------------------------|--------------------------------------|
B|------------8-8-9-9-----------8-8-9-9-|------------8-8-9-9-----------8-8-9-9-|
G|--5-5-10-10---------5-5-10-10---------|--5-5-10-10---------5-5-10-10---------|
D|--------------------------------------|--------------------------------------|
A|--------------------------------------|--------------------------------------|
E|--------------------------------------|--------------------------------------|


    W                    W                    W
e|-------------------|--16b----------------|-------------------|
B|--6----------------|---------------------|-------------------|
G|-------------------|---------------------|-------------------|
D|-------------------|---------------------|-------------------|
A|-------------------|---------------------|-------------------|
E|-------------------|---------------------|-------------------| 


                                                              PM PM
    W                   E  Q    E  E  E  E  E     E  Q     E  E  E    Q
e|-------------------|-------------------------|---------------------------|
B|-------------------|-------------------------|--------------------<>8----|
G|-------------------|--8--8----7--8--7--------|--8--8--------7--8---------|
D|-------------------|-------------------8--5--|----------10---------------|
A|-------------------|-------------------------|---------------------------|
E|-------------------|-------------------------|---------------------------|


    E  E  E  E  E   E   E  E      E   E  E   E  H
e|----------------------------|--------------------------|
B|----------------------------|--------------------------|
G|--8--8--L--7--8--10--12--8--|--12--10--8--10--L--------|
D|----------------------------|--------------------------|
A|----------------------------|--------------------------|
E|----------------------------|--------------------------|


    E  E  E    Q    E  E   E         E   E   E   E  E    E   S   S  E
e|----------------------------|----------------------------------------|
B|--8------------------8--11--|--/<>16--11--16--18-----/20--18p-16-----|
G|-----8----------------------|------------------------------------15--|
D|--------8--<>8----8---------|----------------------------------------|
A|----------------------------|----------------------------------------|
E|----------------------------|----------------------------------------|


     E   E  E   E   E  E   E  E     E  E    E  E  H
e|-------------------------------|-------------------------|
B|--11--11--8--11--11--8---------|--8----------------------|
G|------------------------10--8--|-----8-------7--L--------|
D|-------------------------------|--------<>8--------------|
A|-------------------------------|-------------------------|
E|-------------------------------|-------------------------|


    E  E  E  E  E  E   E  E     E  E  E  E  E   E    Q
e|---------------------------|----------------------------|
B|---------------------------|---------------------<>8----|
G|-----7--8--7--8--7---------|-----7--8--7--8--10---------|
D|--------------------10--5--|----------------------------|
A|---------------------------|----------------------------|
E|---------------------------|----------------------------|


     T    T    T    T     T     T     T    T
     S S  S S  S S  S  S  S  S  S  S  S S  S S      E   E   E   H         E
e|---------------------------------------------|---------------13~--------L--|
B|--11-8-11-8-11-8-----------------------------|-----------11----------------|
G|-----------------13-10-13-10-13-10-12-8-12-8-|--/12--12--------------------|
D|---------------------------------------------|-----------------------------|
A|---------------------------------------------|-----------------------------|
E|---------------------------------------------|-----------------------------|


     E   E  E   S  S  E   E   E   E      E   E  E   S  S  E   E   Q
e|-----------------------------------|---------------------------------|
B|-----------------------------------|---------------------------13----|
G|--12--12--L--12-10-12--10----------|--12--12--L--10-12-10--12--------|
D|---------------------------13--10--|---------------------------------|
A|-----------------------------------|---------------------------------|
E|-----------------------------------|---------------------------------|


     S   S  S  S  S   S  S   S  S  S  S   S  S   S  S  S
e|-------------------------------------------------------|
B|--20p-16----16-18p-15-16p-13----13-16p-13-15p-11----11-|
G|---------17------------------13------------------12----|
D|-------------------------------------------------------|
A|-------------------------------------------------------|
E|-------------------------------------------------------|


      E   S  S   Q      E.    E.    E        Q.      H        E
e|-------------------------------------|-------------------------|
B|--/18--18-18-/20----/18---/16---/11--|--<>16~------------------|
G|-------------------------------------|-------------------------|
D|-------------------------------------|-------------------------|
A|-------------------------------------|-------------------------|
E|-------------------------------------|-------------------------|


    W                   H        H           H        H
e|-------------------|--------------------|--------------------|
B|-------------------|-----------8--------|--6--------4--------|
G|-------------------|--------------------|--------------------|
D|-------------------|--------------------|--------------------|
A|-------------------|--------------------|--------------------|
E|-------------------|--------------------|--------------------|


    H        H           H        H           H        H
e|-----------6--------|--4-----------------|--------------------|
B|--------------------|-----------8--------|-----------8--------|
G|--------------------|--------------------|--------------------|
D|--------------------|--------------------|--------------------|
A|--------------------|--------------------|--------------------|
E|--------------------|--------------------|--------------------|


    Q.     Q.     Q       W                   H.           Q
e|---------------------|-------------------|--------------------|
B|--6------8------6----|--4----------------|--L-----------------|
G|---------------------|-------------------|--------------------|
D|---------------------|-------------------|--------------------|
A|---------------------|-------------------|--------------------|
E|---------------------|-------------------|--------------------|


    H        H           H        H           H        H
e|--------------------|--------------------|-----------6--------|
B|-----------8--------|--6--------4--------|--------------------|
G|--------------------|--------------------|--------------------|
D|--------------------|--------------------|--------------------|
A|--------------------|--------------------|--------------------|
E|--------------------|--------------------|--------------------|


    H        H           H        H           Q.     Q.     Q
e|--4-----------------|--------------------|---------------------|
B|-----------8--------|-----------8--------|--6------8------6----|
G|--------------------|--------------------|---------------------|
D|--------------------|--------------------|---------------------|
A|--------------------|--------------------|---------------------|
E|--------------------|--------------------|---------------------|


    W                   H.           Q       W
e|-------------------|--------------------|-------------------|
B|--4----------------|--L-----------------|-------------------|
G|-------------------|--------------------|-------------------|
D|-------------------|--------------------|-------------------|
A|-------------------|--------------------|-------------------|
E|-------------------|--------------------|-------------------|


    S   S  S  S  S  S S   S  S   S  S  S  S  S  S  S
e|---------------------------------------------------|
B|---------------------------------------------------|
G|---------------------------------------------------|
D|--8h-10-10-10-10-10-8h-10-13p-10-10-10-10-10-10-10-|
A|---------------------------------------------------|
E|---------------------------------------------------|


     S  S  S  S  S  S S S  S  S  S S S S  S  S
e|---------------------------------------------|
B|---------------------------------------------|
G|--12-12-12-10-10-10-8-8-10-10-10-8-8-8-------|
D|---------------------------------------12-12-|
A|---------------------------------------------|
E|---------------------------------------------|


    S   S  S  S  S  S S   S  S   S  S  S  S  S  S  S
e|---------------------------------------------------|
B|---------------------------------------------------|
G|---------------------------------------------------|
D|--8h-10-10-10-10-10-8h-10-13p-10-10-10-10-10-10-10-|
A|---------------------------------------------------|
E|---------------------------------------------------|


     S  S  S  S  S  S S S  S  S  S S S S  S  S
e|---------------------------------------------|
B|---------------------------------------------|
G|--12-12-12-10-10-10-8-8-10-10-10-8-8-8-------|
D|---------------------------------------12-12-|
A|---------------------------------------------|
E|---------------------------------------------|


    S   S  S  S  S  S S   S  S   S  S  S  S  S  S  S
e|---------------------------------------------------|
B|---------------------------------------------------|
G|---------------------------------------------------|
D|--8h-10-10-10-10-10-8h-10-13p-10-10-10-10-10-10-10-|
A|---------------------------------------------------|
E|---------------------------------------------------|


     S  S  S  S  S  S S S  S  S  S S S S  S  S
e|---------------------------------------------|
B|---------------------------------------------|
G|--12-12-12-10-10-10-8-8-10-10-10-8-8-8-------|
D|---------------------------------------12-12-|
A|---------------------------------------------|
E|---------------------------------------------|


    S   S  S  S  S  S S   S  S   S  S  S  S  S  S  S
e|---------------------------------------------------|
B|---------------------------------------------------|
G|---------------------------------------------------|
D|--8h-10-10-10-10-10-8h-10-13p-10-10-10-10-10-10-10-|
A|---------------------------------------------------|
E|---------------------------------------------------|


     S  S  S  S  S  S S S  S  S  S S S S  S  S    W
e|---------------------------------------------|-------------------|
B|---------------------------------------------|-------------------|
G|--12-12-12-10-10-10-8-8-10-10-10-8-8-8-------|-------------------|
D|---------------------------------------12-12-|-------------------|
A|---------------------------------------------|-------------------|
E|---------------------------------------------|-------------------|


    W                   S  S S  S  S   S  S   S  S   S  S   S S  S S  S
e|-------------------|--------------------------------------------------|
B|-------------------|--6s-8-6s-8-11s-15-11s-15-15s-16-15s-16-6s-8-6s-8-|
G|-------------------|--------------------------------------------------|
D|-------------------|--------------------------------------------------|
A|-------------------|--------------------------------------------------|
E|-------------------|--------------------------------------------------| 


    W                   S   S  S  S  S  S S   S  S   S  S  S  S  S  S  S
e|-------------------|---------------------------------------------------|
B|-------------------|---------------------------------------------------|
G|-------------------|---------------------------------------------------|
D|-------------------|--8h-10-10-10-10-10-8h-10-13p-10-10-10-10-10-10-10-|
A|-------------------|---------------------------------------------------|
E|-------------------|---------------------------------------------------|


     S  S  S  S  S  S S S  S  S  S S S S  S  S
e|---------------------------------------------|
B|---------------------------------------------|
G|--12-12-12-10-10-10-8-8-10-10-10-8-8-8-------|
D|---------------------------------------12-12-|
A|---------------------------------------------|
E|---------------------------------------------|


    S   S  S  S  S  S S   S  S   S  S  S  S  S  S  S
e|---------------------------------------------------|
B|---------------------------------------------------|
G|---------------------------------------------------|
D|--8h-10-10-10-10-10-8h-10-13p-10-10-10-10-10-10-10-|
A|---------------------------------------------------|
E|---------------------------------------------------|


     S  S  S  S  S  S S S  S  S  S S S S  S  S
e|---------------------------------------------|
B|---------------------------------------------|
G|--12-12-12-10-10-10-8-8-10-10-10-8-8-8-------|
D|---------------------------------------12-12-|
A|---------------------------------------------|
E|---------------------------------------------|


    S   S  S  S  S  S S   S  S   S  S  S  S  S  S  S
e|---------------------------------------------------|
B|---------------------------------------------------|
G|---------------------------------------------------|
D|--8h-10-10-10-10-10-8h-10-13p-10-10-10-10-10-10-10-|
A|---------------------------------------------------|
E|---------------------------------------------------|


     S  S  S  S  S  S S S  S  S  S S S S  S  S
e|---------------------------------------------|
B|---------------------------------------------|
G|--12-12-12-10-10-10-8-8-10-10-10-8-8-8-------|
D|---------------------------------------12-12-|
A|---------------------------------------------|
E|---------------------------------------------|


    S   S  S  S  S  S S   S  S   S  S  S  S  S  S  S
e|---------------------------------------------------|
B|---------------------------------------------------|
G|---------------------------------------------------|
D|--8h-10-10-10-10-10-8h-10-13p-10-10-10-10-10-10-10-|
A|---------------------------------------------------|
E|---------------------------------------------------|


     S  S  S  S  S  S S S  S  S  S S S S  S  S
e|---------------------------------------------|
B|---------------------------------------------|
G|--12-12-12-10-10-10-8-8-10-10-10-8-8-8-------|
D|---------------------------------------12-12-|
A|---------------------------------------------|
E|---------------------------------------------|


    S S S S    E  S S E   E  E    E     E.  E.   E    H
e|-----------------------------------|---------------------------|
B|-----------------------------------|---------------------------|
G|-----------------------------------|---------------------------|
D|--6-6-6-6-<>10--6-6-8---------<>8--|--------------<>8br--------|
A|-----------------------10--6-------|--6---8---10---------------|
E|-----------------------------------|---------------------------|


    W                   W                    E.    E.  E  E.    E.  E
e|-------------------|-------------------|-----------------------------|
B|-------------------|-------------------|-------<>8-------------------|
G|-------------------|-------------------|--/8---------8--7---<>8---7--|
D|-------------------|-------------------|-----------------------------|
A|-------------------|-------------------|-----------------------------|
E|-------------------|-------------------|-----------------------------|


     S   S  S   S  Q     S  S  S  Q    S    W                   W
e|---------------------------------------|-------------------|-------------------|
B|----------------15----15-13-11-13------|-------------------|-------------------|
G|---------------------------------------|-------------------|-------------------|
D|--10s-12-10s-12------------------------|-------------------|-------------------|
A|---------------------------------------|-------------------|-------------------|
E|---------------------------------------|-------------------|-------------------|


     E   S  S  E   E   E   E   E   E      E   S  S  E   E   E   E   Q
e|------------------------------------|----------------------------------|
B|------------------------------------|------------------------11--------|
G|--12--12-12-12--10--------------10--|--12--12-12-12--10----------12----|
D|--------------------13--10--13------|--------------------13------------|
A|------------------------------------|----------------------------------|
E|------------------------------------|----------------------------------|


     E   S  S  E   E   E   E   E   E
e|------------------------------------|
B|------------------------------------|
G|--12--12-12-12--10--------------10--|
D|--------------------13--10--13------|
A|------------------------------------|
E|------------------------------------|


     S   S   S  S  S  S  S  S  S   S  S  S    Q
e|-------------------------------------------------|
B|-------------------------------------------------|
G|--10h-12p-10----------10-12-15p-12-10-12-<>12----|
D|-------------13-10-13----------------------------|
A|-------------------------------------------------|
E|-------------------------------------------------|


     E   S  S  E   E   E   E   E   E      E   S  S  E   E   E   E   Q
e|------------------------------------|----------------------------------|
B|------------------------------------|------------------------15--------|
G|--15--15-15-15--13--12------12--13--|--15--15-15-15--13--12------15----|
D|------------------------13----------|----------------------------------|
A|------------------------------------|----------------------------------|
E|------------------------------------|----------------------------------|


     E   S  S  E   E   E   E   E   E      S  S  S  S  S  S  S  S E   E   E   E
e|------------------------------------|--------------------------8--11--13--15--|
B|------------------------------------|-----------------------------------------|
G|--15--15-15-15--13--12------12--13--|--15-13-12-13-12-13-15-13-5---8--10--12--|
D|------------------------13----------|-----------------------------------------|
A|------------------------------------|-----------------------------------------|
E|------------------------------------|-----------------------------------------|


     S  S  S  S  S  S  S  S  E   E   E  E     W
e|--------------------------15--13--11--8--|-------------------|
B|-----------------------------------------|-------------------|
G|--15-13-12-13-12-13-12-13-12--10---8--5--|-------------------|
D|-----------------------------------------|-------------------|
A|-----------------------------------------|-------------------|
E|-----------------------------------------|-------------------| 


     Q     E    Q     E   E   E      E    E   E    E   E    E    Q
e|--15----13S--20----13--15--13--|--15S--13--------------------/11----|
B|-------------------------------|-----------16S--15------------------|
G|-------------------------------|--------------------13S--12---------|
D|-------------------------------|------------------------------------|
A|-------------------------------|------------------------------------|
E|-------------------------------|------------------------------------|


     E   E   E    E   E   E    Q           E     E   E   E   E    E   Q
e|----------------------------------|--------------------------------------|
B|--23--23s--8--/23--23--22s--20----|--/<>15--<>15--\3--16--15s--20--18----|
G|----------------------------------|--------------------------------------|
D|----------------------------------|--------------------------------------|
A|----------------------------------|--------------------------------------|
E|----------------------------------|--------------------------------------| 


     T     T     T             T     T     T
     S  S  S  S  S   S  S  S   S  S  S  S  S   S  S  S
e|------------------------------------------------------|
B|--20-16-20-16-20s-16-15-16s-20-16-20-16-20s-16-15-16s-|
G|------------------------------------------------------|
D|------------------------------------------------------|
A|------------------------------------------------------|
E|------------------------------------------------------|


     T     T     T                     T
     S  S  S  S  S   S  S  S  Q        Q
e|------------------------------------------|
B|--20-16-20-16-20s-16-15-16-18b----<>20----|
G|------------------------------------------|
D|------------------------------------------|
A|------------------------------------------|
E|------------------------------------------|


     S. S. S  S  S  S  S  S  S  S  S  S  S  S  S      E   Q     E   E   E   Q
e|-----------------------------------------------|-------------------------------|
B|-----------------------------------11-13-15-16-|--/18--18----20--18------------|
G|-----------------------------12-14-------------|---------------------20--17----|
D|-----------------12-13-12-13-------------------|-------------------------------|
A|-----------11-13-------------------------------|-------------------------------|
E|--11-13-15-------------------------------------|-------------------------------|

  
     T       T       T       T       T       T       T       T
     |--3-|  |--3-|  |--3-|  |--3-|  |--3-|  |--3-|  |--3-|  |--3-|
     S  S S  S S  S  S  S S  S S  S  S  S S  S S  S  S  S S  S S  S
e|------------------------------------------------------------------|
B|------------------------------------------------------------------|
G|--17-12-8-17-8-12-17-12-8-17-8-12-17-12-8-17-8-12-17-12-8-17-8-12-|
D|------------------------------------------------------------------|
A|------------------------------------------------------------------|
E|------------------------------------------------------------------|


     S  S  S  S  E   E    E    E   E   E
e|----------------------------------------|
B|--20-20-20-20-18--16s--18s--16------16--|
G|--------------------------------19------|
D|----------------------------------------|
A|----------------------------------------|
E|----------------------------------------|


     T    T    T    T    T    T    T    T    T    T    T    T    T    T    T    T
     T T  T T  T T  T T  T T  T T  T T  T T  T T  T T  T T  T T  T T  T T  T T  T
e|--------------------------------------------------------------------------------|
B|--------------------------------------------------------------------------------|
G|--17-8-17-8-15-8-15-8-17-8-17-8-13-8-13-8-17-8-17-8-15-8-15-8-17-8-17-8-12-8-12-|
D|--------------------------------------------------------------------------------|
A|--------------------------------------------------------------------------------|
E|--------------------------------------------------------------------------------|


     S   S  S  S  S  S  S  S  S  S  S  S  E   E
e|---------------------------------------20------|
B|--21p-18----------------18-20-18-20-21-----16--|
G|---------17----------17------------------------|
D|------------18----18---------------------------|
A|---------------20------------------------------|
E|-----------------------------------------------|


     S  S  S  S  S  S  S  S  H
e|---------------------------------------|
B|-----18----18----23----23-23pbr--------|
G|--17----17----19----19-----------------|
D|---------------------------------------|
A|---------------------------------------|
E|---------------------------------------|


     S  S  S  S  S  S  S  S  H               W
e|----------------------------------------|-------------------|
B|-----------------------11-20pbr~--------|-------------------|
G|--------------10-12-14------------------|-------------------|
D|-----10-12-13---------------------------|-------------------|
A|--13------------------------------------|-------------------|
E|----------------------------------------|-------------------| 


    Q     Q     E  E   E   E      Q.        Q     Q     E
e|----------------------------|----------------------------|
B|-------16----18-----20--18--|--20br------20----18----16--|
G|----------------------------|----------------------------|
D|----------------------------|----------------------------|
A|----------------------------|----------------------------|
E|----------------------------|----------------------------|


     E    E   E   E   E   E   E   E     Q     E   E   E.     S  Q
e|--13p--11--------------------------|-------------------------------|
B|-----------11--------------11--13--|--L----15--13--15br---13-------|
G|---------------12------12----------|-------------------------12----|
D|-------------------13--------------|-------------------------------|
A|-----------------------------------|-------------------------------|
E|-----------------------------------|-------------------------------|


     E   E   E   E  E   E   E   E      E   E   E   E   S   S  S  S  Q
e|---------------------------------|-------------------------------15----|
B|------20-------------16----------|----------13--15--16p-15----15-------|
G|--17------17--13--L------13--12--|--10--12-----------------17----------|
D|---------------------------------|-------------------------------------|
A|---------------------------------|-------------------------------------|
E|---------------------------------|-------------------------------------|


       whammy bar
       Q          Q        Q        Q         Q.       H          E
e|----------------------------------------|--10b------13br--------L--|
B|----------------------------------------|--------------------------|
G|--<>15b---------------------------------|--------------------------|
D|-------------<>15b----<>13b-------------|--------------------------|
A|-------------------------------<>15b----|--------------------------|
E|----------------------------------------|--------------------------| 


      Q.      Q     E.  S  E      E   E  E     Q      Q     E
e|----------------------------|--------------------------------|
B|--/13------13---------------|--13--15-----<>16~----13----11--|
G|-----------------13-----13--|--------------------------------|
D|----------------------------|--------------------------------|
A|----------------------------|--------------------------------|
E|----------------------------|--------------------------------|


     S   S  S  S  S   S   S  S  H             E   E   E     E   H
e|----------------------------------------|------------------------------|
B|----------------------------------------|------------------------------|
G|--13p-12---------------------13b--------|------------------------------|
D|---------13-10-12h-13p-12-10------------|--12------13--<>10~--L--------|
A|----------------------------------------|------15----------------------|
E|----------------------------------------|------------------------------|


      E   E   E   E   E   E   E   E      E   E  E   E  E   E     Q
e|-----------------------------------|--------------------------------|
B|--/16--16--13--16--16--13--16--13--|--16--18-----16-----13--<>13----|
G|-----------------------------------|--------------------------------|
D|-----------------------------------|--------------------------------|
A|-----------------------------------|--------------------------------|
E|-----------------------------------|--------------------------------|


     S  S  S  S  S  S  S  S  S  S  S  S  S  S  S  S
e|--------------------------------------------------|
B|--------------------------------------------------|
G|--------------------------------------------------|
D|--------------13-------13-15----13-15-17-13-15-17-|
A|--------15-17----15-17-------17-------------------|
E|--17-18-------------------------------------------|


     T     T                 T     T
     S  S  S  S  S  S  S  S  S  S  S  S  S  S  S  S
e|--------------------------------------------------|
B|--------------16-15-------------------20-16-------|
G|--17-13-19-13-------17-13-19-15-19-15-------17-13-|
D|--------------------------------------------------|
A|--------------------------------------------------|
E|--------------------------------------------------|


    S S  S  S  S  S  S  S  S  S  S  S  S  S  S  S
e|------------------------------------------------|
B|------------------------------------------------|
G|--8-8-------10-10-------12-12-------10-10-------|
D|------10-10-------10-10-------10-10-------10-10-|
A|------------------------------------------------|
E|------------------------------------------------|


   T      T      T      T      T      T      T      T
   |-3-|  |-3-|  |-3-|  |-3-|  |-3-|  |-3-|  |-3-|  |-3-|
   S S S  S S S  S S S  S S S  S S S  S S S  S S S  S S S
e|----------------------------------------------------------|
B|----------------------------------------------------------|
G|--13-8-5-13-8-5-13-8-5-13-8-5-13-8-5-13-8-5-13-8-5-13-8-5-|
D|----------------------------------------------------------|
A|----------------------------------------------------------|
E|----------------------------------------------------------|


     S  S  S  S  S  S  S  S  S  S  S  S  S  S  S  S
e|--------------------------------------------------|
B|-----------13-15-16-15-13-15-13-------------------|
G|--13-12-13----------------------13-12----------12-|
D|--------------------------------------13-12-13----|
A|--------------------------------------------------|
E|--------------------------------------------------|


     S  S  S  S  S  S  S  S  S  S  S  S    Q         E   E   E   E  E   Q     E
e|----------------------------------------------|--------------------------------|
B|----------------------------------------------|--/13--11--13--11---------------|
G|--13-13-12----12-12---------------------------|----------------------12----12--|
D|-----------13-------13-13-12-13-12------------|--------------------------------|
A|-----------------------------------15-<>15----|--------------------------------|
E|----------------------------------------------|--------------------------------|


       Q.         E   E   E     Q
e|------------------------------------|
B|--<>11brb---------------------------|
G|------------------------------------|
D|---------------13--12--10--<>10~----|
A|------------------------------------|
E|------------------------------------|


                             T  W  T  W  T  W  T  W
     S  S  S  S  S  S  S  S  S  S  S  S  S  S  S  S
e|--------------------------------------------------|
B|--------------------------------------------------|
G|--------------------------------------------------|
D|--------------13-15-17-18-18-13-18-13-18-13-18-13-|
A|-----13-15-17-------------------------------------|
E|--15----------------------------------------------|


   whammy bar dive
   T                     T        T        T        T        T        T        T
   |---------3--------|  |--3--|  |--3--|  |--3--|  |--3--|  |--3--|  |--3--|  |
   S               S  S  S  S  S  S  S  S  S  S  S  S  S  S  S  S  S  S  S  S  S
e|---------------------------------------------------------------------------------|
B|---------------------------------------------------------------------------------|
G|--17--------------13-12-17-13-12-17-13-12-17-13-12-17-13-12-17-13-12-17-13-12-17-|
D|---------------------------------------------------------------------------------|
A|---------------------------------------------------------------------------------|
E|---------------------------------------------------------------------------------| 


              |--3--| |-3-| |-3-| |-3-|
    H         S  S  S S S S S S S S S S    W                   W
e|--------------------------------------|-------------------|-------------------|
B|--------------------------------------|-------------------|-------------------|
G|-----------12-11-10-9-8-7-6-5-4-3-2-1-|-------------------|-------------------|
D|--------------------------------------|-------------------|-------------------|
A|--------------------------------------|-------------------|-------------------|
E|--------------------------------------|-------------------|-------------------| 


     S  S  S  S S S  S  S  S  S S S  S  S S S
e|--------------------------------------------|
B|--13-13-13-13-8-8-13-13-13-13-8-8-13-13-8-8-|
G|--------------------------------------------|
D|--------------------------------------------|
A|--------------------------------------------|
E|--------------------------------------------|


     S  S  S  S S S  S  S  S  S S S  S  S S S
e|--------------------------------------------|
B|--13-13-13-13-8-8-13-13-13-13-8-8-13-13-8-8-|
G|--------------------------------------------|
D|--------------------------------------------|
A|--------------------------------------------|
E|--------------------------------------------|


     S  S  S  S  S  S  S  S  S  S  S  S  S  S  S  S
e|--------------------------------------------------|
B|--16-16-16-16-13-13-16-16-16-16-13-13-16-16-13-13-|
G|--------------------------------------------------|
D|--------------------------------------------------|
A|--------------------------------------------------|
E|--------------------------------------------------|


     S  S  S  S  S  S  S  S  S  S  S  S  S  S  S  S
e|--------------------------------------------------|
B|--16-16-16-16-13-13-16-16-16-16-13-13-16-16-13-13-|
G|--------------------------------------------------|
D|--------------------------------------------------|
A|--------------------------------------------------|
E|--------------------------------------------------|


     S  S  S  S S S  S  S  S  S S S  S  S S S
e|--------------------------------------------|
B|--13-13-13-13-9-9-13-13-13-13-9-9-13-13-9-9-|
G|--------------------------------------------|
D|--------------------------------------------|
A|--------------------------------------------|
E|--------------------------------------------|


     S  S  S  S S S  S  S  S  S S S  S  S S S
e|--------------------------------------------|
B|--13-13-13-13-9-9-13-13-13-13-9-9-13-13-9-9-|
G|--------------------------------------------|
D|--------------------------------------------|
A|--------------------------------------------|
E|--------------------------------------------|


     S  S  S  S S S  S  S  S  S S S  S  S S S
e|--------------------------------------------|
B|--13-13-13-13-8-8-13-13-13-13-8-8-13-13-8-8-|
G|--------------------------------------------|
D|--------------------------------------------|
A|--------------------------------------------|
E|--------------------------------------------|


    S S  S S  S S S S S S S S S S S S
e|----------------------6-------------|
B|---------8----8-9-8-9---9-8-9-8-----|
G|--7-8-10---10-------------------8-7-|
D|------------------------------------|
A|------------------------------------|
E|------------------------------------|


     S  S  S  S S S  S  S  S  S S S  S  S S S
e|--------------------------------------------|
B|--13-13-13-13-8-8-13-13-13-13-8-8-13-13-8-8-|
G|--------------------------------------------|
D|--------------------------------------------|
A|--------------------------------------------|
E|--------------------------------------------|


     S  S  S  S S S  S  S  S  S S S  S  S S S
e|--------------------------------------------|
B|--13-13-13-13-8-8-13-13-13-13-8-8-13-13-8-8-|
G|--------------------------------------------|
D|--------------------------------------------|
A|--------------------------------------------|
E|--------------------------------------------|


     S  S  S  S  S  S  S  S  S  S  S  S  S  S  S  S
e|--------------------------------------------------|
B|--16-16-16-16-13-13-16-16-16-16-13-13-16-16-13-13-|
G|--------------------------------------------------|
D|--------------------------------------------------|
A|--------------------------------------------------|
E|--------------------------------------------------|


     S  S  S  S  S  S  S  S  S  S  S  S  S  S  S  S
e|--------------------------------------------------|
B|--16-16-16-16-13-13-16-16-16-16-13-13-16-16-13-13-|
G|--------------------------------------------------|
D|--------------------------------------------------|
A|--------------------------------------------------|
E|--------------------------------------------------|


     S  S  S  S S S  S  S  S  S S S  S  S S S
e|--------------------------------------------|
B|--13-13-13-13-9-9-13-13-13-13-9-9-13-13-9-9-|
G|--------------------------------------------|
D|--------------------------------------------|
A|--------------------------------------------|
E|--------------------------------------------|


     S  S  S  S S S  S  S  S  S S S  S  S S S    W
e|--------------------------------------------|-------------------|
B|--13-13-13-13-9-9-13-13-13-13-9-9-13-13-9-9-|-------------------|
G|--------------------------------------------|-------------------|
D|--------------------------------------------|-------------------|
A|--------------------------------------------|-------------------|
E|--------------------------------------------|-------------------|


                         PM  PM  PM  PM  PM  PM  PM  PM
    W                    E   E   E   E   E   E   E   E
e|-------------------|----------------------------------|
B|-------------------|----------------------------------|
G|-------------------|--12--15--15--12--15--15--12--15--|
D|-------------------|----------------------------------|
A|-------------------|--10--13--13--10--13--13--10--13--|
E|-------------------|----------------------------------|


     PM  PM  PM  PM  PM  PM  PM  PM     PM  PM  PM  PM  PM  PM  PM  PM
     E   E   E   E   E   E   E   E      E   E   E   E   E   E   E   E
e|----------------------------------|----------------------------------|
B|----------------------------------|----------------------------------|
G|--15--12--12--15--15--12----------|--10--12--12--10--12--12--10--12--|
D|--------------------------15--13--|----------------------------------|
A|--13--10--10--13--13--10----------|---8--10--10---8--10--10---8--10--|
E|--------------------------13--11--|----------------------------------|


     PM  PM  PM  PM  PM  PM  PM  PM
     E   E   E   E   E   E   E   E      E   E   E   E  E   E  E   E
e|----------------------------------|--------------------------------|
B|----------------------------------|--------------------------------|
G|--12--10--12--12--13--12----------|--------------------------------|
D|--------------------------15--13--|--------------------------------|
A|--10---8--10--10--11--10----------|--15--15--15--15-----15-----15--|
E|--------------------------13--11--|--------------------------------|


    E   E  E   E   E   E   E  E
e|-------------------------------|
B|-------------------------------|
G|-------------------------------|
D|-------------------------------|
A|-----15-----15--15--15--15-----|
E|-------------------------------|


     S   S   S   S   S   S   S   S   S   S   S   S   S   S   S   S
e|-----------------------------------------------------------------|
B|-----------------------------------------------------------------|
G|--15p-12h-15p-12h-15p-12h-15p-12h-15p-12h-15p-12h-15p-12h-15p-12-|
D|-----------------------------------------------------------------|
A|-----------------------------------------------------------------|
E|-----------------------------------------------------------------|


     S   S   S   S   S   S   S   S   S   S   S   S   S   S   S   S
e|-----------------------------------------------------------------|
B|-----------------------------------------------------------------|
G|--15p-12h-15p-12h-15p-12h-15p-12h-15p-12h-15p-12h-15p-12h-15p-12-|
D|-----------------------------------------------------------------|
A|-----------------------------------------------------------------|
E|-----------------------------------------------------------------|


     S   S   S   S   S   S   S   S   S   S   S   S   S   S   S   S
e|-----------------------------------------------------------------|
B|-----------------------------------------------------------------|
G|--15p-12h-15p-12h-15p-12h-15p-12h-15p-12h-15p-12h-15p-12h-15p-12-|
D|-----------------------------------------------------------------|
A|-----------------------------------------------------------------|
E|-----------------------------------------------------------------|


     S   S   S   S   S   S   S   S   S   S   S   S   S   S   S   S
e|-----------------------------------------------------------------|
B|-----------------------------------------------------------------|
G|--15p-12h-15p-12h-15p-12h-15p-12h-15p-12h-15p-12h-15p-12h-15p-12-|
D|-----------------------------------------------------------------|
A|-----------------------------------------------------------------|
E|-----------------------------------------------------------------|


     S   S   S   S   S   S   S   S   S   S   S   S   S   S   S   S
e|-----------------------------------------------------------------|
B|-----------------------------------------------------------------|
G|--15p-12h-15p-12h-15p-12h-15p-12h-15p-12h-15p-12h-15p-12h-15p-12-|
D|-----------------------------------------------------------------|
A|-----------------------------------------------------------------|
E|-----------------------------------------------------------------|


     S   S   S   S   S   S   S   S   S   S   S   S   S   S   S   S
e|-----------------------------------------------------------------|
B|-----------------------------------------------------------------|
G|--15p-12h-15p-12h-15p-12h-15p-12h-15p-12h-15p-12h-15p-12h-15p-12-|
D|-----------------------------------------------------------------|
A|-----------------------------------------------------------------|
E|-----------------------------------------------------------------|


     PM  PM  PM  PM  PM  PM  PM  PM
     E   E   E   E   E   E   E   E      H         H
e|--13------------------------------|-------------------------|
B|------16--15--13--16--15--13------|--16b--------------------|
G|------------------------------15--|-------------------------|
D|----------------------------------|-------------8pbr--------|
A|----------------------------------|-------------------------|
E|----------------------------------|-------------------------|


                       |-----3-----|
   S   S   E   E   E   Q     Q     Q          Q.      H        E
e|----------------------------------------|-------------------------||
B|--13h-15p-13----------------------------|-------------------------||
G|--------------13--12--------12----13----|--<>12~------------------||
D|----------------------13----------------|-------------------------||
A|----------------------------------------|-------------------------||
E|----------------------------------------|-------------------------|| 


[Rhythm guitar 1&2]

     Q    H        Q       W                   Q    H        Q
e||---------------------|-------------------|---------------------|
B||---------------------|-------------------|---------------------|
G||--5------------------|-------------------|--5------------------|
D||--5------------------|-------------------|--5------------------|
A||--3------------------|-------------------|--3------------------|
E||---------------------|-------------------|---------------------|


    W                   W                   W
e|-------------------|-------------------|-------------------|
B|-------------------|-------------------|-------------------|
G|-------------------|--3----------------|--L----------------|
D|-------------------|--3----------------|--L----------------|
A|-------------------|--1----------------|--L----------------|
E|-------------------|-------------------|-------------------|


    Q    H        Q       W                   Q    H        Q
e|---------------------|-------------------|---------------------|
B|---------------------|-------------------|---------------------|
G|---------------------|-------------------|--5------------------|
D|--6------------------|--5----------------|--5------------------|
A|--6------------------|--5----------------|--3------------------|
E|--4------------------|--3----------------|---------------------|


    W                   Q    H        Q       W
e|-------------------|---------------------|-------------------|
B|-------------------|---------------------|-------------------|
G|-------------------|--5------------------|-------------------|
D|-------------------|--5------------------|-------------------|
A|-------------------|--3------------------|-------------------|
E|-------------------|---------------------|-------------------|


    W                   W                   Q    H        Q
e|-------------------|-------------------|---------------------|
B|-------------------|-------------------|---------------------|
G|-------------------|-------------------|---------------------|
D|--6----------------|--L----------------|--5------------------|
A|--6----------------|--L----------------|--5------------------|
E|--4----------------|--L----------------|--3------------------|


    E.  S E.  S E.  Q    S    E  S S S S S S S S S S S S S S
e|-------------------------|---------------------------------|
B|-------------------------|---------------------------------|
G|-------------------------|---------------------------------|
D|--5-----5-----5----------|--5------------------------------|
A|--5-----5-----5----------|--3--3-3-3-3-3-3-3-3-3-3-3-3-3-3-|
E|--3-----3-----3----------|---------------------------------|


    S S S S S S S S S S S S S S S S    E  S S S S S S S S S S S S S S
e|----------------------------------|---------------------------------|
B|----------------------------------|---------------------------------|
G|----------------------------------|---------------------------------|
D|----------------------------------|---------------------------------|
A|--3-3-3-3-3-3-3-3-3-3-3-3-3-3-3-3-|--6------------------------------|
E|----------------------------------|--4--4-4-4-4-4-4-4-4-4-4-4-4-4-4-|


    S S S S S S S S S S S S S S S S    E  S S S S S S S S S S S S S S
e|----------------------------------|---------------------------------|
B|----------------------------------|---------------------------------|
G|----------------------------------|---------------------------------|
D|----------------------------------|---------------------------------|
A|----------------------------------|--3------------------------------|
E|--4-4-4-4-4-4-4-4-4-4-4-4-4-4-4-4-|--1--1-1-1-1-1-1-1-1-1-1-1-1-1-1-|


    S S S S S S S S S S S S S S S S    E  S S S S S S S S S S S S S S
e|----------------------------------|---------------------------------|
B|----------------------------------|---------------------------------|
G|----------------------------------|---------------------------------|
D|----------------------------------|---------------------------------|
A|----------------------------------|--6------------------------------|
E|--1-1-1-1-1-1-1-1-1-1-1-1-1-1-1-1-|--4--4-4-4-4-4-4-4-4-4-4-4-4-4-4-|


    S S S S S S S S S S S S S S S S    E  S S S S S S S S S S S S S S
e|----------------------------------|---------------------------------|
B|----------------------------------|---------------------------------|
G|----------------------------------|---------------------------------|
D|----------------------------------|--5------------------------------|
A|----------------------------------|--3--3-3-3-3-3-3-3-3-3-3-3-3-3-3-|
E|--4-4-4-4-4-4-4-4-4-4-4-4-4-4-4-4-|---------------------------------|


    S S S S S S S S S S S S S S S S    E  S S S S S S S S S S S S S S
e|----------------------------------|---------------------------------|
B|----------------------------------|---------------------------------|
G|----------------------------------|---------------------------------|
D|----------------------------------|---------------------------------|
A|--3-3-3-3-3-3-3-3-3-3-3-3-3-3-3-3-|--6------------------------------|
E|----------------------------------|--4--4-4-4-4-4-4-4-4-4-4-4-4-4-4-|


    S S S S S S S S S S S S S S S S    E  S S S S S S S S S S S S S S
e|----------------------------------|---------------------------------|
B|----------------------------------|---------------------------------|
G|----------------------------------|---------------------------------|
D|----------------------------------|---------------------------------|
A|----------------------------------|--3------------------------------|
E|--4-4-4-4-4-4-4-4-4-4-4-4-4-4-4-4-|--1--1-1-1-1-1-1-1-1-1-1-1-1-1-1-|


    S S S S S S S S S S S S S S S S    E  S S S S S S S S S S S S S S
e|----------------------------------|---------------------------------|
B|----------------------------------|---------------------------------|
G|----------------------------------|---------------------------------|
D|----------------------------------|---------------------------------|
A|----------------------------------|--6------------------------------|
E|--1-1-1-1-1-1-1-1-1-1-1-1-1-1-1-1-|--4--4-4-4-4-4-4-4-4-4-4-4-4-4-4-|


    S S S S S S S S S S S S S S S S    Q    H        Q       W
e|----------------------------------|---------------------|-------------------|
B|----------------------------------|---------------------|-------------------|
G|----------------------------------|--5------------------|-------------------|
D|----------------------------------|--5------------------|-------------------|
A|----------------------------------|--3------------------|-------------------|
E|--4-4-4-4-4-4-4-4-4-4-4-4-4-4-4-4-|---------------------|-------------------|


    Q    H        Q       W                   Q    H        Q
e|---------------------|-------------------|---------------------|
B|---------------------|-------------------|---------------------|
G|---------------------|-------------------|--3------------------|
D|--6------------------|-------------------|--3------------------|
A|--6------------------|-------------------|--1------------------|
E|--4------------------|-------------------|---------------------|


    W                   E.  S E.  S E  Q.        Q    H        Q
e|-------------------|------------------------|---------------------|
B|-------------------|------------------------|---------------------|
G|-------------------|--3-----3-----3--3------|--5------------------|
D|-------------------|--3-----3-----3--3------|--5------------------|
A|-------------------|--1-----1-----1--1------|--3------------------|
E|-------------------|------------------------|---------------------|


    E  S S S S S S S S S S S S S S    S S S S S S S S E  E  E  E
e|---------------------------------|------------------------------|
B|---------------------------------|------------------------------|
G|---------------------------------|------------------------3--5--|
D|--5------------------------------|------------------5--5--3--5--|
A|--3--3-3-3-3-3-3-3-3-3-3-3-3-3-3-|--3-3-3-3-3-3-3-3-3--3--------|
E|---------------------------------|------------------------------|


    E  S S S S S S S S S S S S S S    S S S S S S S S S S S S S S S S
e|---------------------------------|----------------------------------|
B|---------------------------------|----------------------------------|
G|---------------------------------|----------------------------------|
D|---------------------------------|----------------------------------|
A|--6------------------------------|----------------------------------|
E|--4--4-4-4-4-4-4-4-4-4-4-4-4-4-4-|--4-4-4-4-4-4-4-4-4-4-4-4-4-4-4-4-|


    E  S S S S E  H           E  S S S S E  H           E  E  E  E  E  E  E  E
e|-------------------------|-------------------------|--------------------------|
B|-------------------------|-------------------------|--------------------------|
G|-------------3--L--------|-------------3--L--------|--------------------------|
D|--3----------3--L--------|--3----------3--L--------|--------5-----------5-----|
A|--1--1-1-1-1-1--L--------|--1--1-1-1-1-1--L--------|--3--3--3--3--3--3--3--3--|
E|-------------------------|-------------------------|--------------------------|


    E  Q    E  E  E  E  E     E  S S S S S S S S S S S S S S
e|-------------------------|---------------------------------|
B|-------------------------|---------------------------------|
G|-----5----3--5-----------|---------------------------------|
D|-----5----3--5-----------|--5------------------------------|
A|--3-------------3--3--3--|--3--3-3-3-3-3-3-3-3-3-3-3-3-3-3-|
E|-------------------------|---------------------------------|


    S S S S S S S S S S S S S S S S    E  S S S S S S S S S S S S S S
e|----------------------------------|---------------------------------|
B|----------------------------------|---------------------------------|
G|----------------------------------|---------------------------------|
D|----------------------------------|---------------------------------|
A|--3-3-3-3-3-3-3-3-3-3-3-3-3-3-3-3-|--6------------------------------|
E|----------------------------------|--4--4-4-4-4-4-4-4-4-4-4-4-4-4-4-|


    S S S S S S S S S S S S S S S S    E  S S E  E  E  E    Q
e|----------------------------------|-----------------------------|
B|----------------------------------|-----------------------------|
G|----------------------------------|-----------------------------|
D|----------------------------------|---------------3-----<>3b----|
A|----------------------------------|--1--1-1-1--1-----1----------|
E|--4-4-4-4-4-4-4-4-4-4-4-4-4-4-4-4-|-----------------------------|


    E  S S E  E    E  E    Q        E  S S S S S S S S S S S S S S
e|-------------------------------|---------------------------------|
B|-------------------------------|---------------------------------|
G|-------------------------------|---------------------------------|
D|---------------<>3-----<>3b----|--5------------------------------|
A|--1--1-1-1--1-------1----------|--3--3-3-3-3-3-3-3-3-3-3-3-3-3-3-|
E|-------------------------------|---------------------------------|


    E  E.  S E.  S E.  S E     W                   W
e|--------------------------|-------------------|-------------------|
B|--------------------------|-------------------|-------------------|
G|-----5-----5-----5-----5--|-------------------|-------------------|
D|-----5-----5-----5-----5--|--3----------------|--L----------------|
A|-----3-----3-----3-----3--|--3----------------|--L----------------|
E|--------------------------|--1----------------|--L----------------|


    W                   W                   W                   W
e|-------------------|-------------------|-------------------|-------------------|
B|-------------------|-------------------|-------------------|-------------------|
G|--5----------------|--L----------------|-------------------|-------------------|
D|--5----------------|--L----------------|--6----------------|--L----------------|
A|--3----------------|--L----------------|--6----------------|--L----------------|
E|-------------------|-------------------|--4----------------|--L----------------|


    Q    E  E  E  E  E  E     E.  S Q    Q    Q       W
e|-------------------------|-----------------------|-------------------|
B|-------------------------|-----------------------|-------------------|
G|--3----------------------|--3-----3---------3----|--8----------------|
D|--3----------------------|--3-----3----6----3----|--8----------------|
A|--1----1--1--1--1--1--1--|--1-----1----6----1----|--6----------------|
E|-------------------------|-------------4---------|-------------------|


    W                   W                   S S E  S S E  S S E    Q
e|-------------------|-------------------|------------------------------|
B|-------------------|-------------------|------------------------------|
G|-------------------|-------------------|------------------------------|
D|--8----------------|--6----------------|------------------------------|
A|--8----------------|--6----------------|--6-6-6--6-6-6--6-6-6--<>6----|
E|--6----------------|--4----------------|--4-4-4--4-4-4--4-4-4---------|


    E  E  E  E  E  E  E  E     E  E  E  E  E  E    Q
e|--------------------------|---------------------------|
B|--------------------------|---------------------------|
G|--------------------------|---------------------------|
D|--5--------5--------5-----|--3--------3---------------|
A|--3--3--3--3--3--3--3--3--|--1--1--1--1--1--1--<>1----|
E|--------------------------|---------------------------|


    E  S S S S S S S S S S S S S S    S S S S S S S S S S S S S S S S
e|---------------------------------|----------------------------------|
B|---------------------------------|----------------------------------|
G|---------------------------------|----------------------------------|
D|---------------------------------|----------------------------------|
A|--6------------------------------|----------------------------------|
E|--4--4-4-4-4-4-4-4-4-4-4-4-4-4-4-|--4-4-4-4-4-4-4-4-4-4-4-4-4-4-4-4-|


    W                   W                   E  E  E  E  E  E  E  E
e|-------------------|-------------------|--------------------------|
B|-------------------|-------------------|--------------------------|
G|--5----------------|-------------------|--------------------------|
D|--5----------------|--6----------------|--5--------5--------5-----|
A|--3----------------|--6----------------|--3--3--3--3--3--3--3--3--|
E|-------------------|--4----------------|--------------------------|


    W                   E  S S S S S S S S S S S S S S
e|-------------------|---------------------------------|
B|-------------------|---------------------------------|
G|--8----------------|---------------------------------|
D|--8----------------|---------------------------------|
A|--6----------------|--6------------------------------|
E|-------------------|--4--4-4-4-4-4-4-4-4-4-4-4-4-4-4-|


    S S S S S S S S S S S S S S S S    E  S S S S S S S S S S S S S S
e|----------------------------------|---------------------------------|
B|----------------------------------|---------------------------------|
G|----------------------------------|---------------------------------|
D|----------------------------------|--3------------------------------|
A|----------------------------------|--1--1-1-1-1-1-1-1-1-1-1-1-1-1-1-|
E|--4-4-4-4-4-4-4-4-4-4-4-4-4-4-4-4-|---------------------------------|


    Q    H        Q       W                   W
e|---------------------|-------------------|-------------------|
B|---------------------|-------------------|-------------------|
G|--3------------------|-------------------|-------------------|
D|--3------------------|--6----------------|--L----------------|
A|--1------------------|--6----------------|--L----------------|
E|---------------------|--4----------------|--L----------------|


    W                   W                   E  S S S S S S S S S S S S S S
e|-------------------|-------------------|---------------------------------|
B|-------------------|-------------------|---------------------------------|
G|--5----------------|--L----------------|---------------------------------|
D|--5----------------|--L----------------|--3------------------------------|
A|--3----------------|--L----------------|--1--1-1-1-1-1-1-1-1-1-1-1-1-1-1-|
E|-------------------|-------------------|---------------------------------|


    S S S S S S S S S S S S S S S S    W                   W
e|----------------------------------|-------------------|-------------------|
B|----------------------------------|-------------------|-------------------|
G|----------------------------------|-------------------|-------------------|
D|----------------------------------|--5----------------|--L----------------|
A|--1-1-1-1-1-1-1-1-1-1-1-1-1-1-1-1-|--5----------------|--L----------------|
E|----------------------------------|--3----------------|--L----------------|


    W                   W                   W                   W
e|-------------------|-------------------|-------------------|-------------------|
B|-------------------|-------------------|-------------------|-------------------|
G|-------------------|-------------------|--5----------------|--L----------------|
D|--6----------------|--L----------------|--5----------------|--L----------------|
A|--6----------------|--L----------------|--3----------------|--L----------------|
E|--4----------------|--L----------------|-------------------|-------------------|


    W                   Q    H        Q       W
e|-------------------|---------------------|-------------------|
B|-------------------|---------------------|-------------------|
G|--3----------------|--3------------------|--5----------------|
D|--3----------------|--3------------------|--5----------------|
A|--1----------------|--1------------------|--3----------------|
E|-------------------|---------------------|-------------------|


    W                   W                   W                   W
e|-------------------|-------------------|-------------------|-------------------|
B|-------------------|-------------------|-------------------|-------------------|
G|--L----------------|-------------------|--3----------------|--5----------------|
D|--L----------------|--6----------------|--3----------------|--5----------------|
A|--L----------------|--6----------------|--1----------------|--3----------------|
E|-------------------|--4----------------|-------------------|-------------------|


    W                   W                   W                   W
e|-------------------|-------------------|-------------------|-------------------|
B|-------------------|-------------------|-------------------|-------------------|
G|--L----------------|-------------------|--3----------------|--5----------------|
D|--L----------------|--6----------------|--3----------------|--5----------------|
A|--L----------------|--6----------------|--1----------------|--3----------------|
E|-------------------|--4----------------|-------------------|-------------------|


    W                   W                   W                   W
e|-------------------|-------------------|-------------------|-------------------|
B|-------------------|-------------------|-------------------|-------------------|
G|--L----------------|-------------------|--3----------------|--5----------------|
D|--L----------------|--6----------------|--3----------------|--5----------------|
A|--L----------------|--6----------------|--1----------------|--3----------------|
E|-------------------|--4----------------|-------------------|-------------------|


    W                   W                   Q    Q    E.  E.  E
e|-------------------|-------------------|-----------------------|
B|-------------------|-------------------|-----------------------|
G|--L----------------|-------------------|-------3---------------|
D|--L----------------|--6----------------|--6----3----6---5---3--|
A|--L----------------|--6----------------|--6----1----6---5---3--|
E|-------------------|--4----------------|--4---------4---3---1--|


    Q.     H        E     W                   Q    E  E  E  E  E  E
e|---------------------|-------------------|-------------------------|
B|---------------------|-------------------|-------------------------|
G|--5------------------|-------------------|--5----------------------|
D|--5------------------|-------------------|--5----------------------|
A|--3------------------|-------------------|--3----3--3--3--3--3--3--|
E|---------------------|-------------------|-------------------------|


    E  E  E  E  E  E  E  E     Q    E  E  E  E  E  E     E  E  E  E  E  E  E  E
e|--------------------------|-------------------------|--------------------------|
B|--------------------------|-------------------------|--------------------------|
G|--------------------------|-------------------------|--------------------------|
D|--------------------------|--6----------------------|--------------------------|
A|--3--3--3--3--3--3--3--3--|--6----------------------|--------------------------|
E|--------------------------|--4----4--4--4--4--4--4--|--4--4--4--4--4--4--4--4--|


    Q    E  E  E  E  E  E     E  E  E  E  E  E  E  E     Q    H        Q
e|-------------------------|--------------------------|---------------------|
B|-------------------------|--------------------------|---------------------|
G|--3----------------------|--------------------------|--5------------------|
D|--3----------------------|--------------------------|--5------------------|
A|--1----1--1--1--1--1--1--|--1--1--1--1--1--1--1--1--|--3------------------|
E|-------------------------|--------------------------|---------------------|


    Q    H        Q       E  S S S S S S S S S S S S S S
e|---------------------|---------------------------------|
B|---------------------|---------------------------------|
G|--5------------------|---------------------------------|
D|--5------------------|--5------------------------------|
A|--3------------------|--3--3-3-3-3-3-3-3-3-3-3-3-3-3-3-|
E|---------------------|---------------------------------|


    S S S S S S S S S S S S S S S S    E  S S S S S S S S S S S S S S
e|----------------------------------|---------------------------------|
B|----------------------------------|---------------------------------|
G|----------------------------------|---------------------------------|
D|----------------------------------|---------------------------------|
A|--3-3-3-3-3-3-3-3-3-3-3-3-3-3-3-3-|--6------------------------------|
E|----------------------------------|--4--4-4-4-4-4-4-4-4-4-4-4-4-4-4-|


    S S S S S S S S S S S S S S S S    E  S S S S E  H
e|----------------------------------|-------------------------|
B|----------------------------------|-------------------------|
G|----------------------------------|-------------3--L--------|
D|----------------------------------|--3----------3--L--------|
A|----------------------------------|--1--1-1-1-1-1--L--------|
E|--4-4-4-4-4-4-4-4-4-4-4-4-4-4-4-4-|-------------------------|


    E  S S S S E  H           E  E  E  E  E  E  E  E     E  Q    E  E  E    Q
e|-------------------------|--------------------------|--------------------------|
B|-------------------------|--------------------------|--------------------------|
G|-------------3--L--------|--------------------------|-----5----3--5-----<>5----|
D|--3----------3--L--------|--------5-----------5-----|-----5----3--5------------|
A|--1--1-1-1-1-1--L--------|--3--3--3--3--3--3--3--3--|--3-------------3---------|
E|-------------------------|--------------------------|--------------------------|


    W                   W                   W                   W
e|-------------------|-------------------|-------------------|-------------------|
B|-------------------|-------------------|-------------------|-------------------|
G|-------------------|-------------------|--5----------------|--L----------------|
D|--3----------------|--L----------------|--5----------------|--L----------------|
A|--3----------------|--L----------------|--3----------------|--L----------------|
E|--1----------------|--L----------------|-------------------|-------------------|


    W                   W                   Q    E  E  E  E  E  E
e|-------------------|-------------------|-------------------------|
B|-------------------|-------------------|-------------------------|
G|-------------------|-------------------|--3----------------------|
D|--6----------------|--L----------------|--3----------------------|
A|--6----------------|--L----------------|--1----1--1--1--1--1--1--|
E|--4----------------|--L----------------|-------------------------|


    E.  S Q    Q    Q       W                   W
e|-----------------------|-------------------|-------------------|
B|-----------------------|-------------------|-------------------|
G|--3-----3---------3----|--8----------------|-------------------|
D|--3-----3----6----3----|--8----------------|--8----------------|
A|--1-----1----6----1----|--6----------------|--8----------------|
E|-------------4---------|-------------------|--6----------------|


    W                   S S E  S S E  S S E    Q       E  E  E  E  E  E  E  E
e|-------------------|------------------------------|--------------------------|
B|-------------------|------------------------------|--------------------------|
G|-------------------|------------------------------|--------------------------|
D|--6----------------|------------------------------|--5--------5--------5-----|
A|--6----------------|--6-6-6--6-6-6--6-6-6--<>6----|--3--3--3--3--3--3--3--3--|
E|--4----------------|--4-4-4--4-4-4--4-4-4---------|--------------------------|


    E  E  E  E  E  E    Q       W                   W
e|---------------------------|-------------------|-------------------|
B|---------------------------|-------------------|-------------------|
G|---------------------------|-------------------|-------------------|
D|--3--------3---------------|--6----------------|--L----------------|
A|--1--1--1--1--1--1--<>1----|--6----------------|--L----------------|
E|---------------------------|--4----------------|--L----------------|


    W                   W                   E  E  E  E  E  E  E  E
e|-------------------|-------------------|--------------------------|
B|-------------------|-------------------|--------------------------|
G|--5----------------|-------------------|--------------------------|
D|--5----------------|--6----------------|--5--------5--------5-----|
A|--3----------------|--6----------------|--3--3--3--3--3--3--3--3--|
E|-------------------|--4----------------|--------------------------|


    W                   E  S S S S S S S S S S S S S S
e|-------------------|---------------------------------|
B|-------------------|---------------------------------|
G|--8----------------|---------------------------------|
D|--8----------------|---------------------------------|
A|--6----------------|--6------------------------------|
E|-------------------|--4--4-4-4-4-4-4-4-4-4-4-4-4-4-4-|


    S S S S S S S S S S S S S S S S    E  S S S S S S S S S S S S S S
e|----------------------------------|---------------------------------|
B|----------------------------------|---------------------------------|
G|----------------------------------|---------------------------------|
D|----------------------------------|--3------------------------------|
A|----------------------------------|--1--1-1-1-1-1-1-1-1-1-1-1-1-1-1-|
E|--4-4-4-4-4-4-4-4-4-4-4-4-4-4-4-4-|---------------------------------|


    Q    H        Q       W                   W
e|---------------------|-------------------|-------------------|
B|---------------------|-------------------|-------------------|
G|--3------------------|-------------------|-------------------|
D|--3------------------|--6----------------|--L----------------|
A|--1------------------|--6----------------|--L----------------|
E|---------------------|--4----------------|--L----------------|


    W                   W                   E  S S S S S S S S S S S S S S
e|-------------------|-------------------|---------------------------------|
B|-------------------|-------------------|---------------------------------|
G|--5----------------|--L----------------|---------------------------------|
D|--5----------------|--L----------------|--3------------------------------|
A|--3----------------|--L----------------|--1--1-1-1-1-1-1-1-1-1-1-1-1-1-1-|
E|-------------------|-------------------|---------------------------------|


    S S S S S S S S S S S S S S S S    W                   W
e|----------------------------------|-------------------|-------------------|
B|----------------------------------|-------------------|-------------------|
G|----------------------------------|-------------------|-------------------|
D|----------------------------------|--5----------------|--L----------------|
A|--1-1-1-1-1-1-1-1-1-1-1-1-1-1-1-1-|--5----------------|--L----------------|
E|----------------------------------|--3----------------|--L----------------|


    W                   W                   W                   W
e|-------------------|-------------------|-------------------|-------------------|
B|-------------------|-------------------|-------------------|-------------------|
G|-------------------|-------------------|--5----------------|--L----------------|
D|--6----------------|--L----------------|--5----------------|--L----------------|
A|--6----------------|--L----------------|--3----------------|--L----------------|
E|--4----------------|--L----------------|-------------------|-------------------|


    W                   Q    H        Q       W
e|-------------------|---------------------|-------------------|
B|-------------------|---------------------|-------------------|
G|--3----------------|--3------------------|--5----------------|
D|--3----------------|--3------------------|--5----------------|
A|--1----------------|--1------------------|--3----------------|
E|-------------------|---------------------|-------------------|


    W                   W                   W                   W
e|-------------------|-------------------|-------------------|-------------------|
B|-------------------|-------------------|-------------------|-------------------|
G|--L----------------|-------------------|--3----------------|--5----------------|
D|--L----------------|--6----------------|--3----------------|--5----------------|
A|--L----------------|--6----------------|--1----------------|--3----------------|
E|-------------------|--4----------------|-------------------|-------------------|


    W                   W                   W                   W
e|-------------------|-------------------|-------------------|-------------------|
B|-------------------|-------------------|-------------------|-------------------|
G|--L----------------|-------------------|--3----------------|--5----------------|
D|--L----------------|--6----------------|--3----------------|--5----------------|
A|--L----------------|--6----------------|--1----------------|--3----------------|
E|-------------------|--4----------------|-------------------|-------------------|


    W                   W                   W                   W
e|-------------------|-------------------|-------------------|-------------------|
B|-------------------|-------------------|-------------------|-------------------|
G|--L----------------|-------------------|--3----------------|--5----------------|
D|--L----------------|--6----------------|--3----------------|--5----------------|
A|--L----------------|--6----------------|--1----------------|--3----------------|
E|-------------------|--4----------------|-------------------|-------------------|


    W                   W                   Q    Q    E.  E.  E
e|-------------------|-------------------|-----------------------|
B|-------------------|-------------------|-----------------------|
G|--L----------------|-------------------|-------3---------------|
D|--L----------------|--6----------------|--6----3----6---5---3--|
A|--L----------------|--6----------------|--6----1----6---5---3--|
E|-------------------|--4----------------|--4---------4---3---1--|


    Q.     H        E     H        Q    Q       Q    H        Q
e|---------------------|---------------------|---------------------|
B|---------------------|---------------------|---------------------|
G|--5------------------|----------------3----|--5------------------|
D|--5------------------|----------------3----|--5------------------|
A|--3------------------|----------------1----|--3------------------|
E|---------------------|---------------------|---------------------|


    H        Q    E  E     Q    H        Q       H        Q    Q
e|----------------------|---------------------|---------------------|
B|----------------------|---------------------|---------------------|
G|-------------------3--|--5------------------|----------------3----|
D|-------------------3--|--5------------------|----------------3----|
A|-------------------1--|--3------------------|----------------1----|
E|----------------------|---------------------|---------------------|


    Q    H        Q       W                   W
e|---------------------|-------------------|-------------------|
B|---------------------|-------------------|-------------------|
G|--5------------------|-------------------|-------------------|
D|--5------------------|-------------------|--6----------------|
A|--3------------------|-------------------|--6----------------|
E|---------------------|-------------------|--4----------------|


    H.           Q       Q    H        Q       H        Q    E  E
e|--------------------|---------------------|----------------------|
B|--------------------|---------------------|----------------------|
G|---------------3----|--5------------------|-------------------3--|
D|--L------------3----|--5------------------|-------------------3--|
A|--L------------1----|--3------------------|-------------------1--|
E|--L-----------------|---------------------|----------------------|


    Q    H        Q       H        Q    Q       Q    H        Q
e|---------------------|---------------------|---------------------|
B|---------------------|---------------------|---------------------|
G|--5------------------|----------------3----|--5------------------|
D|--5------------------|----------------3----|--5------------------|
A|--3------------------|----------------1----|--3------------------|
E|---------------------|---------------------|---------------------|


    W                   W                   W                   W
e|-------------------|-------------------|-------------------|-------------------|
B|-------------------|-------------------|-------------------|-------------------|
G|-------------------|-------------------|-------------------|-------------------|
D|-------------------|--6----------------|--L----------------|--L----------------|
A|-------------------|--6----------------|--L----------------|--L----------------|
E|-------------------|--4----------------|--L----------------|--L----------------|


    E  S S S S S S S S S S S S S S    S S S S S S S S S S S S S S S S
e|---------------------------------|----------------------------------|
B|---------------------------------|----------------------------------|
G|---------------------------------|----------------------------------|
D|--5------------------------------|----------------------------------|
A|--3--3-3-3-3-3-3-3-3-3-3-3-3-3-3-|--3-3-3-3-3-3-3-3-3-3-3-3-3-3-3-3-|
E|---------------------------------|----------------------------------|


    E  S S S S S S S S S S S S S S    E  S S S S S S E  S S S S S S
e|---------------------------------|--------------------------------|
B|---------------------------------|--------------------------------|
G|---------------------------------|--------------------------------|
D|---------------------------------|-----------------3--------------|
A|--6------------------------------|--6--------------1--1-1-1-1-1-1-|
E|--4--4-4-4-4-4-4-4-4-4-4-4-4-4-4-|--4--4-4-4-4-4-4----------------|


    E  S S S S S S S S S S S S S S    S S S S S S S S S S S S S S S S
e|---------------------------------|----------------------------------|
B|---------------------------------|----------------------------------|
G|---------------------------------|----------------------------------|
D|--5------------------------------|----------------------------------|
A|--3--3-3-3-3-3-3-3-3-3-3-3-3-3-3-|--3-3-3-3-3-3-3-3-3-3-3-3-3-3-3-3-|
E|---------------------------------|----------------------------------|


    E  S S S S S S S S S S S S S S    E  S S S S S S E  S S S S S S
e|---------------------------------|--------------------------------|
B|---------------------------------|--------------------------------|
G|---------------------------------|--------------------------------|
D|---------------------------------|-----------------3--------------|
A|--6------------------------------|--6--------------1--1-1-1-1-1-1-|
E|--4--4-4-4-4-4-4-4-4-4-4-4-4-4-4-|--4--4-4-4-4-4-4----------------|


    H        H           H        H           E  S S S S S S S S S S S S S S
e|--------------------|--------------------|---------------------------------|
B|--------------------|--------------------|---------------------------------|
G|-----------5--------|--3--------5--------|---------------------------------|
D|--6--------5--------|--3--------5--------|---------------------------------|
A|--6--------3--------|--1--------3--------|--6------------------------------|
E|--4-----------------|--------------------|--4--4-4-4-4-4-4-4-4-4-4-4-4-4-4-|


    E  S S S S S S S S S S S S S S    H        H           H        H
e|---------------------------------|--------------------|--------------------|
B|---------------------------------|--------------------|--------------------|
G|---------------------------------|--5-----------------|--3--------5--------|
D|--3------------------------------|--5--------6--------|--3--------5--------|
A|--1--1-1-1-1-1-1-1-1-1-1-1-1-1-1-|--3--------6--------|--1--------3--------|
E|---------------------------------|-----------4--------|--------------------|


    E  S S S S S S S S S S S S S S    H        H
e|---------------------------------|--------------------|
B|---------------------------------|--------------------|
G|---------------------------------|-----------3--------|
D|---------------------------------|--6--------3--------|
A|--5------------------------------|--6--------1--------|
E|--3--3-3-3-3-3-3-3-3-3-3-3-3-3-3-|--4-----------------|


    E  S S S S S S S S S S S S S S    S S S S S S S S S S S S S S S S
e|---------------------------------|----------------------------------|
B|---------------------------------|----------------------------------|
G|---------------------------------|----------------------------------|
D|--5------------------------------|----------------------------------|
A|--3--3-3-3-3-3-3-3-3-3-3-3-3-3-3-|--3-3-3-3-3-3-3-3-3-3-3-3-3-3-3-3-|
E|---------------------------------|----------------------------------|


    E  S S S S S S S S S S S S S S    E  S S S S S S E  S S S S S S
e|---------------------------------|--------------------------------|
B|---------------------------------|--------------------------------|
G|---------------------------------|--------------------------------|
D|---------------------------------|-----------------3--------------|
A|--6------------------------------|--6--------------1--1-1-1-1-1-1-|
E|--4--4-4-4-4-4-4-4-4-4-4-4-4-4-4-|--4--4-4-4-4-4-4----------------|


    E  S S S S S S S S S S S S S S    S S S S S S S S S S S S S S S S
e|---------------------------------|----------------------------------|
B|---------------------------------|----------------------------------|
G|---------------------------------|----------------------------------|
D|--5------------------------------|----------------------------------|
A|--3--3-3-3-3-3-3-3-3-3-3-3-3-3-3-|--3-3-3-3-3-3-3-3-3-3-3-3-3-3-3-3-|
E|---------------------------------|----------------------------------|


    E  S S S S S S S S S S S S S S    E  S S S S S S E  S S S S S S
e|---------------------------------|--------------------------------|
B|---------------------------------|--------------------------------|
G|---------------------------------|--------------------------------|
D|---------------------------------|-----------------3--------------|
A|--6------------------------------|--6--------------1--1-1-1-1-1-1-|
E|--4--4-4-4-4-4-4-4-4-4-4-4-4-4-4-|--4--4-4-4-4-4-4----------------|


    H        H           H        H           E  S S S S S S S S S S S S S S
e|--------------------|--------------------|---------------------------------|
B|--------------------|--------------------|---------------------------------|
G|-----------5--------|--3--------5--------|---------------------------------|
D|--6--------5--------|--3--------5--------|---------------------------------|
A|--6--------3--------|--1--------3--------|--6------------------------------|
E|--4-----------------|--------------------|--4--4-4-4-4-4-4-4-4-4-4-4-4-4-4-|


    E  S S S S S S S S S S S S S S    H        H           H        H
e|---------------------------------|--------------------|--------------------|
B|---------------------------------|--------------------|--------------------|
G|---------------------------------|--5-----------------|--3--------5--------|
D|--3------------------------------|--5--------6--------|--3--------5--------|
A|--1--1-1-1-1-1-1-1-1-1-1-1-1-1-1-|--3--------6--------|--1--------3--------|
E|---------------------------------|-----------4--------|--------------------|


    E  S S S S S S S S S S S S S S    H        H           Q    H        Q
e|---------------------------------|--------------------|---------------------|
B|---------------------------------|--------------------|---------------------|
G|---------------------------------|-----------3--------|--5------------------|
D|---------------------------------|--6--------3--------|--5------------------|
A|--5------------------------------|--6--------1--------|--3------------------|
E|--3--3-3-3-3-3-3-3-3-3-3-3-3-3-3-|--4-----------------|---------------------|


    Q    H        Q       Q    H        Q       W
e|---------------------|---------------------|-------------------|
B|---------------------|---------------------|-------------------|
G|--5------------------|--5------------------|-------------------|
D|--5------------------|--5------------------|--6----------------|
A|--3------------------|--3------------------|--6----------------|
E|---------------------|---------------------|--4----------------|


    Q    H        Q       Q    H        Q       Q    H        Q
e|---------------------|---------------------|---------------------|
B|---------------------|---------------------|---------------------|
G|--5------------------|--5------------------|--5------------------|
D|--5------------------|--5------------------|--5------------------|
A|--3------------------|--3------------------|--3------------------|
E|---------------------|---------------------|---------------------|


    W                   W                   W
e|-------------------|-------------------|-------------------|
B|-------------------|-------------------|-------------------|
G|-------------------|-------------------|-------------------|
D|--6----------------|--5----------------|-------------------|
A|--6----------------|--5----------------|-------------------|
E|--4----------------|--3----------------|-------------------|


    E  S S S S S S S S S S S S S S    S S S S S S S S S S S S S S S S
e|---------------------------------|----------------------------------|
B|---------------------------------|----------------------------------|
G|---------------------------------|----------------------------------|
D|--5------------------------------|----------------------------------|
A|--3--3-3-3-3-3-3-3-3-3-3-3-3-3-3-|--3-3-3-3-3-3-3-3-3-3-3-3-3-3-3-3-|
E|---------------------------------|----------------------------------|


    E  S S S S S S S S S S S S S S    S S S S S S S S S S S S S S S S
e|---------------------------------|----------------------------------|
B|---------------------------------|----------------------------------|
G|---------------------------------|----------------------------------|
D|---------------------------------|----------------------------------|
A|--6------------------------------|----------------------------------|
E|--4--4-4-4-4-4-4-4-4-4-4-4-4-4-4-|--4-4-4-4-4-4-4-4-4-4-4-4-4-4-4-4-|


    E  S S S S E  H           E  S S S S E  H           E  E  E  E  E  E  E  E
e|-------------------------|-------------------------|--------------------------|
B|-------------------------|-------------------------|--------------------------|
G|-------------------------|-------------------------|--------------------------|
D|--3----------3--L--------|--3----------3--L--------|--------5-----------5-----|
A|--1--1-1-1-1-1--L--------|--1--1-1-1-1-1--L--------|--3--3--3--3--3--3--3--3--|
E|-------------------------|-------------------------|--------------------------|


    E  Q    E  E  E  E  E     E  S S S S S S S S S S S S S S
e|-------------------------|---------------------------------|
B|-------------------------|---------------------------------|
G|-----5----3--5-----------|---------------------------------|
D|-----5----3--5-----------|--5------------------------------|
A|--3-------------3--3--3--|--3--3-3-3-3-3-3-3-3-3-3-3-3-3-3-|
E|-------------------------|---------------------------------|


    S S S S S S S S S S S S S S S S    E  S S S S S S S S S S S S S S
e|----------------------------------|---------------------------------|
B|----------------------------------|---------------------------------|
G|----------------------------------|---------------------------------|
D|----------------------------------|---------------------------------|
A|--3-3-3-3-3-3-3-3-3-3-3-3-3-3-3-3-|--6------------------------------|
E|----------------------------------|--4--4-4-4-4-4-4-4-4-4-4-4-4-4-4-|


    S S S S S S S S S S S S S S S S    E  S S S S S S S S S S S S S S
e|----------------------------------|---------------------------------|
B|----------------------------------|---------------------------------|
G|----------------------------------|---------------------------------|
D|----------------------------------|--3------------------------------|
A|----------------------------------|--1--1-1-1-1-1-1-1-1-1-1-1-1-1-1-|
E|--4-4-4-4-4-4-4-4-4-4-4-4-4-4-4-4-|---------------------------------|


    S S S S S S S S S S S S S S S S    W                   W
e|----------------------------------|-------------------|-------------------|
B|----------------------------------|-------------------|-------------------|
G|----------------------------------|--5----------------|--5----------------|
D|----------------------------------|--5----------------|--5----------------|
A|--1-1-1-1-1-1-1-1-1-1-1-1-1-1-1-1-|--3----------------|--3----------------|
E|----------------------------------|-------------------|-------------------|


    E  S S S S S S S S S S S S S S    E  E  E  E  H
e|---------------------------------|-----------------------|
B|---------------------------------|-----------------------|
G|---------------------------------|-----------------------|
D|---------------------------------|--------------3--------|
A|--3------------------------------|--3--3-----3--3--------|
E|--1--1-1-1-1-1-1-1-1-1-1-1-1-1-1-|--1--1-----1--1--------|


    E  E  H        E  E     E  E  H        Q
e|-----------------------|----------------------|
B|-----------------------|----------------------|
G|--5--5--------------5--|--5--5----------------|
D|--5--5--------------5--|--5--5----------------|
A|--3--3--------------3--|--3--3----------------|
E|-----------------------|----------------------|


    E  S S S S S S S S S S S S S S    S S S S S S S S S S S S S S S S
e|---------------------------------|----------------------------------|
B|---------------------------------|----------------------------------|
G|---------------------------------|----------------------------------|
D|---------------------------------|----------------------------------|
A|--6------------------------------|----------------------------------|
E|--4--4-4-4-4-4-4-4-4-4-4-4-4-4-4-|--4-4-4-4-4-4-4-4-4-4-4-4-4-4-4-4-|


    Q    H        Q       Q    H        Q       W
e|---------------------|---------------------|-------------------|
B|---------------------|---------------------|-------------------|
G|--3------------------|-------3--------L----|--8----------------|
D|--3------------------|-------3--------L----|--8----------------|
A|--1------------------|-------1--------L----|--6----------------|
E|---------------------|---------------------|-------------------|


    W                   W                   S S E  S S E  S S E  Q
e|-------------------|-------------------|----------------------------|
B|-------------------|-------------------|----------------------------|
G|-------------------|-------------------|----------------------------|
D|--8----------------|--6----------------|----------------------------|
A|--8----------------|--6----------------|--6-6-6--6-6-6--6-6-6--6----|
E|--6----------------|--4----------------|--4-4-4--4-4-4--4-4-4--4----|


    E  S S S S S S S S S S S S S S    E  S S S S S S S S S S S S S S
e|---------------------------------|---------------------------------|
B|---------------------------------|---------------------------------|
G|---------------------------------|---------------------------------|
D|--5------------------------------|--3------------------------------|
A|--3--3-3-3-3-3-3-3-3-3-3-3-3-3-3-|--1--1-1-1-1-1-1-1-1-1-1-1-1-1-1-|
E|---------------------------------|---------------------------------|


    W                   W                   W                   W
e|-------------------|-------------------|-------------------|-------------------|
B|-------------------|-------------------|-------------------|-------------------|
G|-------------------|-------------------|--5----------------|-------------------|
D|--6----------------|--L----------------|--5----------------|--6----------------|
A|--6----------------|--L----------------|--3----------------|--6----------------|
E|--4----------------|--L----------------|-------------------|--4----------------|


    E  E  E  E  E  E  E  E     W                   W
e|--------------------------|-------------------|-------------------|
B|--------------------------|-------------------|-------------------|
G|--------------------------|--8----------------|-------------------|
D|--5--------5--------5-----|--8----------------|--3----------------|
A|--3--3--3--3--3--3--3--3--|--6----------------|--3----------------|
E|--------------------------|-------------------|--1----------------|


    W                   W                   W                   W
e|-------------------|-------------------|-------------------|-------------------|
B|-------------------|-------------------|-------------------|-------------------|
G|-------------------|--5----------------|--3----------------|-------------------|
D|--L----------------|--5----------------|--3----------------|--6----------------|
A|--L----------------|--3----------------|--1----------------|--6----------------|
E|--L----------------|-------------------|-------------------|--4----------------|


    W                   W                   W
e|-------------------|-------------------|-------------------|
B|-------------------|-------------------|-------------------|
G|-------------------|--5----------------|--L----------------|
D|--L----------------|--5----------------|--L----------------|
A|--L----------------|--3----------------|--L----------------|
E|--L----------------|-------------------|-------------------|


    E  S S S S S S S S S S S S S S    S S S S S S S S S S S S S S S S
e|---------------------------------|----------------------------------|
B|---------------------------------|----------------------------------|
G|---------------------------------|----------------------------------|
D|--3------------------------------|----------------------------------|
A|--1--1-1-1-1-1-1-1-1-1-1-1-1-1-1-|--1-1-1-1-1-1-1-1-1-1-1-1-1-1-1-1-|
E|---------------------------------|----------------------------------|


    W                   H        H           W
e|-------------------|--------------------|-------------------|
B|-------------------|--------------------|-------------------|
G|-------------------|-----------3--------|-------------------|
D|--5----------------|--6--------3--------|--6----------------|
A|--5----------------|--6--------1--------|--6----------------|
E|--3----------------|--4-----------------|--4----------------|


    W                   E  Q    E  E  Q    E     E  Q    E  E  Q    E
e|-------------------|------------------------|------------------------|
B|-------------------|------------------------|------------------------|
G|-------------------|-----5----------5-------|-----5----------5-------|
D|--L----------------|-----5----------5-------|-----5----------5-------|
A|--L----------------|--3--3----3--3--3----3--|--3--3----3--3--3----3--|
E|--L----------------|------------------------|------------------------|


    W                   W                   W                   W
e|-------------------|-------------------|-------------------|-------------------|
B|-------------------|-------------------|-------------------|-------------------|
G|--3----------------|--L----------------|--5----------------|--L----------------|
D|--3----------------|--L----------------|--5----------------|--L----------------|
A|--1----------------|--L----------------|--3----------------|--L----------------|
E|-------------------|-------------------|-------------------|-------------------|


    W                   W                   W                   W
e|-------------------|-------------------|-------------------|-------------------|
B|-------------------|-------------------|-------------------|-------------------|
G|--5----------------|--L----------------|-------------------|-------------------|
D|--5----------------|--L----------------|--6----------------|--L----------------|
A|--3----------------|--L----------------|--6----------------|--L----------------|
E|-------------------|-------------------|--4----------------|--L----------------|


    W                   W                   W                   W
e|-------------------|-------------------|-------------------|-------------------|
B|-------------------|-------------------|-------------------|-------------------|
G|--3----------------|--L----------------|--8----------------|--L----------------|
D|--3----------------|--L----------------|--8----------------|--L----------------|
A|--1----------------|--L----------------|--6----------------|--L----------------|
E|-------------------|-------------------|-------------------|-------------------|


    W                   W                   W                   W
e|-------------------|-------------------|-------------------|-------------------|
B|-------------------|-------------------|-------------------|-------------------|
G|--5----------------|--L----------------|-------------------|-------------------|
D|--5----------------|--L----------------|--6----------------|--L----------------|
A|--3----------------|--L----------------|--6----------------|--L----------------|
E|-------------------|-------------------|--4----------------|--L----------------|


    W                   W                   Q    H        Q
e|-------------------|-------------------|---------------------|
B|-------------------|-------------------|---------------------|
G|--3----------------|--L----------------|---------------------|
D|--3----------------|--L----------------|--5------------------|
A|--1----------------|--L----------------|--5------------------|
E|-------------------|-------------------|--3------------------|


    W                   W                   W                   W
e|-------------------|-------------------|-------------------|-------------------|
B|-------------------|-------------------|-------------------|-------------------|
G|-------------------|-------------------|-------------------|--5----------------|
D|-------------------|--6----------------|--L----------------|--5----------------|
A|-------------------|--6----------------|--L----------------|--3----------------|
E|-------------------|--4----------------|--L----------------|-------------------|


    W                   E  S S S S S S S S S S S S S S
e|-------------------|---------------------------------|
B|-------------------|---------------------------------|
G|--L----------------|---------------------------------|
D|--L----------------|--3------------------------------|
A|--L----------------|--1--1-1-1-1-1-1-1-1-1-1-1-1-1-1-|
E|-------------------|---------------------------------|


    S S S S S S S S S S S S S S S S    W                   W
e|----------------------------------|-------------------|-------------------|
B|----------------------------------|-------------------|-------------------|
G|----------------------------------|-------------------|-------------------|
D|----------------------------------|--5----------------|--L----------------|
A|--1-1-1-1-1-1-1-1-1-1-1-1-1-1-1-1-|--5----------------|--L----------------|
E|----------------------------------|--3----------------|--L----------------|


    W                   W                   W                   W
e|-------------------|-------------------|-------------------|-------------------|
B|-------------------|-------------------|-------------------|-------------------|
G|-------------------|-------------------|--5----------------|--L----------------|
D|--6----------------|--L----------------|--5----------------|--L----------------|
A|--6----------------|--L----------------|--3----------------|--L----------------|
E|--4----------------|--L----------------|-------------------|-------------------|


    W                   Q    H        Q       E  S S S S S S S S S S S S S S
e|-------------------|---------------------|---------------------------------|
B|-------------------|---------------------|---------------------------------|
G|--3----------------|--3------------------|---------------------------------|
D|--3----------------|--3------------------|--5------------------------------|
A|--1----------------|--1------------------|--3--3-3-3-3-3-3-3-3-3-3-3-3-3-3-|
E|-------------------|---------------------|---------------------------------|


    S S S S S S S S S S S S S S S S    E  S S S S S S S S S S S S S S
e|----------------------------------|---------------------------------|
B|----------------------------------|---------------------------------|
G|----------------------------------|---------------------------------|
D|----------------------------------|---------------------------------|
A|--3-3-3-3-3-3-3-3-3-3-3-3-3-3-3-3-|--6------------------------------|
E|----------------------------------|--4--4-4-4-4-4-4-4-4-4-4-4-4-4-4-|


    S S S S S S S S S S S S S S S S    E  S S S S S S S S S S S S S S
e|----------------------------------|---------------------------------|
B|----------------------------------|---------------------------------|
G|----------------------------------|---------------------------------|
D|----------------------------------|---------------------------------|
A|----------------------------------|--3------------------------------|
E|--4-4-4-4-4-4-4-4-4-4-4-4-4-4-4-4-|--1--1-1-1-1-1-1-1-1-1-1-1-1-1-1-|


    S S S S S S S S S S S S S S S S    E  S S S S S S S S S S S S S S
e|----------------------------------|---------------------------------|
B|----------------------------------|---------------------------------|
G|----------------------------------|---------------------------------|
D|----------------------------------|---------------------------------|
A|----------------------------------|--6------------------------------|
E|--1-1-1-1-1-1-1-1-1-1-1-1-1-1-1-1-|--4--4-4-4-4-4-4-4-4-4-4-4-4-4-4-|


    S S S S S S S S S S S S S S S S    E  S S S S S S S S S S S S S S
e|----------------------------------|---------------------------------|
B|----------------------------------|---------------------------------|
G|----------------------------------|---------------------------------|
D|----------------------------------|--5------------------------------|
A|----------------------------------|--3--3-3-3-3-3-3-3-3-3-3-3-3-3-3-|
E|--4-4-4-4-4-4-4-4-4-4-4-4-4-4-4-4-|---------------------------------|


    S S S S S S S S S S S S S S S S    E  S S S S S S S S S S S S S S
e|----------------------------------|---------------------------------|
B|----------------------------------|---------------------------------|
G|----------------------------------|---------------------------------|
D|----------------------------------|---------------------------------|
A|--3-3-3-3-3-3-3-3-3-3-3-3-3-3-3-3-|--6------------------------------|
E|----------------------------------|--4--4-4-4-4-4-4-4-4-4-4-4-4-4-4-|


    S S S S S S S S S S S S S S S S    E  S S S S S S S S S S S S S S
e|----------------------------------|---------------------------------|
B|----------------------------------|---------------------------------|
G|----------------------------------|---------------------------------|
D|----------------------------------|---------------------------------|
A|----------------------------------|--3------------------------------|
E|--4-4-4-4-4-4-4-4-4-4-4-4-4-4-4-4-|--1--1-1-1-1-1-1-1-1-1-1-1-1-1-1-|


    S S S S S S S S S S S S S S S S    W                   W
e|----------------------------------|-------------------|-------------------|
B|----------------------------------|-------------------|-------------------|
G|----------------------------------|-------------------|-------------------|
D|----------------------------------|-------------------|-------------------|
A|----------------------------------|-------------------|-------------------|
E|--1-1-1-1-1-1-1-1-1-1-1-1-1-1-1-1-|-------------------|-------------------|


    E  E  E  E  E  E  E  E     E  E  E  E  E  E  E  E
e|--------------------------|--------------------------|
B|--------------------------|--------------------------|
G|--5--5--5--5-----5-----5--|-----5-----5--5--5--5-----|
D|--5--5--5--5-----5-----5--|-----5-----5--5--5--5-----|
A|--3--3--3--3-----3-----3--|-----3-----3--3--3--3-----|
E|--------------------------|--------------------------|


    E  E  E  E  E  E  E  E     E  E  E  E  E  E  E  E
e|--------------------------|--------------------------|
B|--------------------------|--------------------------|
G|--8--8--8--8-----8-----8--|-----8-----8--8--8--8-----|
D|--8--8--8--8-----8-----8--|-----8-----8--8--8--8-----|
A|--6--6--6--6-----6-----6--|-----6-----6--6--6--6-----|
E|--------------------------|--------------------------|


    E  E  E  E  E  E  E  E     E  E  E  E  E  E  E  E     W
e|--------------------------|--------------------------|-------------------|
B|--------------------------|--------------------------|-------------------|
G|--------------------------|--------------------------|-------------------|
D|--3--3--3--3-----3-----3--|-----3-----3--3--3--3-----|--5----------------|
A|--3--3--3--3-----3-----3--|-----3-----3--3--3--3-----|--5----------------|
E|--1--1--1--1-----1-----1--|-----1-----1--1--1--1-----|--3----------------|


    W                   W                   W                   W
e|-------------------|-------------------|-------------------|-------------------|
B|-------------------|-------------------|-------------------|-------------------|
G|-------------------|-------------------|-------------------|-------------------|
D|--L----------------|--L----------------|--L----------------|--L----------------|
A|--L----------------|--L----------------|--L----------------|--L----------------|
E|--L----------------|--L----------------|--L----------------|--L----------------|


    W                   E  E  E  E  E  E  E  E     Q    H        Q
e|-------------------|--------------------------|---------------------|
B|-------------------|--------------------------|---------------------|
G|-------------------|--------------------------|---------------------|
D|--L----------------|--------------------------|--5------------------|
A|--L----------------|--5--5--5--5--5--5--5--5--|--5------------------|
E|--L----------------|--3--3--3--3--3--3--3--3--|--3------------------|


                 |----3----|
    S S S S Q    Q    Q    Q       Q     H        Q
e|------------------------------|----------------------||
B|------------------------------|----------------------||
G|---------------5----5----5----|--5\------------------||
D|--5-5-5-5-5----5----5----5----|--5\------------------||
A|--3-3-3-3-3----3----3----3----|--3\------------------||
E|------------------------------|----------------------||


************************************

| (n)  Ghost note
| h    Hammer-on
| p    Pull-off
| b    Bend
| br   Bend release
| brb  Bend-release-bend
| pbr  Pre-bend release
| /    Slide up
| \    Slide down
| ~    Vibrato 

************************************

            
            
Suggest correction
Creating personal tab
Creating personal tab
You can edit any tab online and save it as your Personal.

You can edit, replace or remove any tab part or add personal notes – all changes will be seen only by you.

Personal tabs can be accessed anytime from any device, even offline.
Learn more »
comments
print report bad tab
435 comments total. Showing first comments.
+35 reply
ldragon-slayerl 87 May 02, 2006 02:26 AM

Dude, you cant say its shitty. Its the most talented genre thats ever been on mtv2, But thanks.

+2 reply
sentient6 10 May 02, 2006 02:29 PM

Dragonforce was on mtv2?

+14 reply
ldragon-slayerl 87 May 02, 2006 04:47 PM

In England.

guest
You may want to rate the tab now too:
select rating
Wanna post a correction for this tab? Suggest correction