Oops, an error
Loading. Please wait.
We have an official Through The Fire And Flames tab made by UG professional guitarists. Check out the tab »
×
3,472 views 1 this week
no commentswrite comment
1 2 3 4 5
1 last vote to show rating
add to favorites
×
Save as Personal and add changes to this tab that will be seen only by you. Learn more ›
×
You can save this tab as Personal to edit and correct it or add notes. All changes will be seen only by you. Learn more »
launch autoscroll
font size
0
reset
guitar tuner
backing track
0:00
0:00
edit
Autoscroll
slow
fast
+/-
esc
set tempo
stop
#----------------------------------PLEASE NOTE---------------------------------#
#This file is the author's own work and represents their interpretation of the #
#song. You may only use this file for private study, scholarship, or research. #
#------------------------------------------------------------------------------#

THROUGH THE FIRE AND THE FLAMES (Bassline)
As recorded by Dragonforce
(From the 2006 Album INHUMAN RAMPAGE)

Transcribed by Rhythman
	

Words and Music by Dragonforce
Arranged by Dragonforce

Gtr I (E A D G) - 'Bass'
Gtr II (B E A D G B E) - 'Keyboard Lead'
Gtr III (E A D G B E) - 'Keyboard String Ensemble'

   Intro
    Fast Rock Q=200
   4/4
    Gtr I
    Q  H.        W          Q  H.        W
||-------------|----------|------------|------|
||o------------|----------|------------|------|
||o-3----------|----------|-3----------|------|
||-------------|----------|------------|------|
|
|   Gtr III
|   Q  H.        W          Q  H.        W
||--3----------|----------|-3----------|------|
||o-4----------|----------|-4----------|------|
||--5----------|----------|-5----------|------|
||-------------|----------|------------|------|
||o-3----------|----------|-3----------|------|
||-------------|----------|------------|------|


  1.
  W          +W           Q  H.        W
|----------|------------|------------|-------||
|----------|------------|------------|------o||
|-1--------|-(1)--------|------------|------o||
|----------|------------|-4----------|-3-----||
|
| W          +W           Q  H.        W
|-1--------|-(1)--------|-4----------|-3-----||
|-3--------|-(3)--------|-4----------|-3----o||
|-3--------|-(3)--------|-5----------|-4-----||
|----------|------------|------------|-------||
|-1--------|-(1)--------|------------|------o||
|----------|------------|-4----------|-3-----||


  2.
  W          +W           Q  H.        E. S E. S E. Q  S
|----------|------------|------------|--------------------||
|----------|------------|------------|--------------------||
|----------|------------|------------|--------------------||
|-4--------|-(4)--------|-3----------|-3----3----3--------||
|
| W          +W           Q  H.        E. S E. S E. Q  S
|-4--------|-(4)--------|-3----------|-3----3----3--------||
|-4--------|-(4)--------|-3----------|-3----3----3--------||
|-5--------|-(5)--------|-4----------|-4----4----4--------||
|----------|------------|------------|--------------------||
|----------|------------|------------|--------------------||
|-4--------|-(4)--------|-3----------|-3----3----3--------||


    E S S S S S S S S S S S S S S    S  S S S S S S S S S S S S S S S
||--------------------------------|-----------------------------------|
||o-------------------------------|-----------------------------------|
||o-3-3-3-3-3-3-3-3-3-3-3-3-3-3-3-|--3--3-3-3-3-3-3-3-3-3-3-3-3-3-3-3-|
||--------------------------------|-----------------------------------|
|
|   W                               +W
||--3-----------------------------|-(3)-------------------------------|
||o-4-----------------------------|-(4)-------------------------------|
||--5-----------------------------|-(5)-------------------------------|
||--------------------------------|-----------------------------------|
||o-3-----------------------------|-(3)-------------------------------|
||--------------------------------|-----------------------------------|


  E S S S S S S S S S S S S S S    S  S S S S S S S S S S S S S S S
|-------------------------------|--------------------------------------|
|-------------------------------|--------------------------------------|
|-------------------------------|--------------------------------------|
|-4-4-4-4-4-4-4-4-4-4-4-4-4-4-4-|--4--4-4-4-4-4-4-4-4-4-4-4-4-4-4-4----|
|
| W                               +W
|-4-----------------------------|-(4)----------------------------------|
|-4-----------------------------|-(4)----------------------------------|
|-5-----------------------------|-(5)----------------------------------|
|-------------------------------|--------------------------------------|
|-------------------------------|--------------------------------------|
|-4-----------------------------|-(4)----------------------------------|


  E S S S S S S S S S S S S S S    S  S S S S S S S S S S S S S S S
|-------------------------------|-----------------------------------|
|-------------------------------|-----------------------------------|
|-------------------------------|-----------------------------------|
|-1-1-1-1-1-1-1-1-1-1-1-1-1-1-1-|--1--1-1-1-1-1-1-1-1-1-1-1-1-1-1-1-|
|
| W                               +W
|-1-----------------------------|-(1)-------------------------------|
|-1-----------------------------|-(1)-------------------------------|
|-1-----------------------------|-(1)-------------------------------|
|-------------------------------|-----------------------------------|
|-------------------------------|-----------------------------------|
|-1-----------------------------|-(1)-------------------------------|


  E S S S S S S S S S S S S S S    S  S S S S S S S S S S S S S S S
|-------------------------------|---------------------------------------||
|-------------------------------|--------------------------------------o||
|-------------------------------|--------------------------------------o||
|-4-4-4-4-4-4-4-4-4-4-4-4-4-4-4-|--4--4-4-4-4-4-4-4-4-4-4-4-4-4-4-4-----||
|
| W                               +W
|-4-----------------------------|-(4)-----------------------------------||
|-4-----------------------------|-(4)----------------------------------o||
|-5-----------------------------|-(5)-----------------------------------||
|-------------------------------|---------------------------------------||
|-------------------------------|--------------------------------------o||
|-4-----------------------------|-(4)-----------------------------------||


 Verse
  Gtr I
   Q     H.                   W
|--------------------------|-------------------------|
|--------------------------|-------------------------|
|--3-----------------------|-------------------------|
|--------------------------|-------------------------|
|
| Gtr II
|  E  E  E   E  E  E  E  E    E  E  E  E  E  E  E  E
|-15-15-15--13-13-13-15-15-|-15-15-15-13-13-13-15-15-|
|-16-16-16--15-15-15-16-16-|-16-16-16-15-15-15-16-16-|
|--------------------------|-------------------------|
|--------------------------|-------------------------|
|--------------------------|-------------------------|
|--------------------------|-------------------------|
|--------------------------|-------------------------|
|
| Gtr III
|  Q     H.                   W
|--3-----------------------|-------------------------|
|--4-----------------------|-------------------------|
|--5-----------------------|-------------------------|
|--------------------------|-------------------------|
|--3-----------------------|-------------------------|
|--------------------------|-------------------------|


   Q     H.                   W
|--------------------------|--------------------------|
|--------------------------|--------------------------|
|--------------------------|--------------------------|
|--4-----------------------|--------------------------|
|
|  E  E  E   E  E  E  E  E    E  E  E  E  E  E  E  E
|-16-16-16--15-15-15-16-16-|-16-16-16-15-15-15-16-16--|
|-18-18-18--16-16-16-18-18-|-18-18-18-16-16-16-18-18--|
|--------------------------|--------------------------|
|--------------------------|--------------------------|
|--------------------------|--------------------------|
|--------------------------|--------------------------|
|--------------------------|--------------------------|
|
|  Q     H.                   W
|--4-----------------------|--------------------------|
|--4-----------------------|--------------------------|
|--5-----------------------|--------------------------|
|--------------------------|--------------------------|
|--------------------------|--------------------------|
|--4-----------------------|--------------------------|


   Q     H.                   W
|--------------------------|-------------------------|
|--------------------------|-------------------------|
|--1-----------------------|-------------------------|
|--------------------------|-------------------------|
|
|  E  E  E   E  E  E  E  E    E  E  E  E  E  E  E  E
|-13-13-13--18-18-18-13-13-|-13-13-13-18-18-18-13-13-|
|-15-15-15--18-18-18-15-15-|-15-15-15-18-18-18-15-15-|
|--------------------------|-------------------------|
|--------------------------|-------------------------|
|--------------------------|-------------------------|
|--------------------------|-------------------------|
|--------------------------|-------------------------|
|
|  Q     H.                   W
|--1-----------------------|-------------------------|
|--3-----------------------|-------------------------|
|--3-----------------------|-------------------------|
|--------------------------|-------------------------|
|--1-----------------------|-------------------------|
|--------------------------|-------------------------|


   E.        S  E.        S  E     Q.                   Q           H.
|----------------------------------------------------|------------------------------------------||
|----------------------------------------------------|------------------------------------------||
|--1------------1------------1-----1-----------------|--3---------------------------------------||
|----------------------------------------------------|------------------------------------------||
|
|  S   S  S  S  S   S  S  S  S  S  S   S  S  S  S  S    S  S  S  S  S   S  S  S  S
|----------------------------------------------------|----------20-23--20---------|
|---------------------------11-----------------------|--------------------20------|
|-----------10-12--10-12-13----13-12--10-------------|----17-20-------------------|
|-----10-13------------------------------13-12-10----|-----------------------17---|
|-13----------------------------------------------13-|-15-------------------------|
|----------------------------------------------------|----------------------------|
|----------------------------------------------------|----------------------------|

----------20-18-18-18---||
-------20---------------||
----20------------------||
-17---------------------||
18----------------------||
------------------------||
------------------------||




|
|  E.        S  E.        S  E     Q.                   Q           H.
|----------------------------------------------------|----------------------------|
|----------------------------------------------------|----------------------------|
|--3------------3------------3-----3-----------------|--5-------------------------|
|--3------------3------------3-----3-----------------|--5-------------------------|
|--1------------1------------1-----1-----------------|--3-------------------------|
|----------------------------------------------------|----------------------------|

------------------------||
------------------------||
------------------------||
------------------------||
------------------------||
------------------------||


   E S S S S S S S S S S S S S S     S  S S S S S S S E E E E
|--------------------------------|----------------------------|
|--------------------------------|----------------------------|
|--3-3-3-3-3-3-3-3-3-3-3-3-3-3-3-|---3--3-3-3-3-3-3-3-3-3-1-3-|
|--------------------------------|----------------------------|
|
|  >
|  W                                +W
|-20-----------------------------|-(20)-----------------------|
|--------------------------------|----------------------------|
|--------------------------------|----------------------------|
|--------------------------------|----------------------------|
|--------------------------------|----------------------------|
|--------------------------------|----------------------------|
|--------------------------------|----------------------------|
|
|  W                                +W
|--3-----------------------------|--(3)-----------------------|
|--4-----------------------------|--(4)-----------------------|
|--5-----------------------------|--(5)-----------------------|
|--------------------------------|----------------------------|
|--3-----------------------------|--(3)-----------------------|
|--------------------------------|----------------------------|


  E S S S S S S S S S S S S S S    S  S S S S S S S S S S S S S S S
|-------------------------------|-------------------------------------|
|-------------------------------|-------------------------------------|
|-------------------------------|-------------------------------------|
|-4-4-4-4-4-4-4-4-4-4-4-4-4-4-4-|--4--4-4-4-4-4-4-4-4-4-4-4-4-4-4-4---|
|
| W                                W
|-------------------------------|-------------------------------------|
|-------------------------------|-------------------------------------|
|-------------------------------|-------------------------------------|
|-------------------------------|-------------------------------------|
|-------------------------------|-------------------------------------|
|-------------------------------|-------------------------------------|
|-------------------------------|-------------------------------------|
|
| W                               +W
|-4-----------------------------|-(4)---------------------------------|
|-4-----------------------------|-(4)---------------------------------|
|-5-----------------------------|-(5)---------------------------------|
|-------------------------------|-------------------------------------|
|-------------------------------|-------------------------------------|
|-4-----------------------------|-(4)---------------------------------|


  Gtr I
  E S S S S E +H        E  S S S S E +H
|--------------------|----------------------|
|--------------------|----------------------|
|-1-1-1-1-1-1-(1)----|--1--1-1-1-1-1-(1)----|
|--------------------|----------------------|
|
| Gtr III
| W                    +W
|-1------------------|-(1)------------------|
|-1------------------|-(1)------------------|
|-3------------------|-(3)------------------|
|--------------------|----------------------|
|-1------------------|-(1)------------------|
|--------------------|----------------------|


  E E E E E E E E    E  Q  E E E E E
|-----------------|-------------------||
|-----------------|-------------------||
|-3-3-3-3-3-3-3-3-|--3--3--1-3-3-3-3--||
|-----------------|-------------------||
|
| W                 +W
|-3---------------|-(3)---------------||
|-4---------------|-(4)---------------||
|-5---------------|-(5)---------------||
|-----------------|-------------------||
|-3---------------|-(3)---------------||
|-----------------|-------------------||


  E S S S S S S S S S S S S S S    S  S S S S S S S S S S S S S S S
|-------------------------------|-----------------------------------|
|-------------------------------|-----------------------------------|
|-3-3-3-3-3-3-3-3-3-3-3-3-3-3-3-|--3--3-3-3-3-3-3-3-3-3-3-3-3-3-3-3-|
|-------------------------------|-----------------------------------|
|
| W                               +W
|-3-----------------------------|-(3)-------------------------------|
|-4-----------------------------|-(4)-------------------------------|
|-5-----------------------------|-(5)-------------------------------|
|-------------------------------|-----------------------------------|
|-3-----------------------------|-(3)-------------------------------|
|-------------------------------|-----------------------------------|


  E S S S S S S S S S S S S S S    S  S S S S S S S S S S S S S S S
|-------------------------------|--------------------------------------|
|-------------------------------|--------------------------------------|
|-------------------------------|--------------------------------------|
|-4-4-4-4-4-4-4-4-4-4-4-4-4-4-4-|--4--4-4-4-4-4-4-4-4-4-4-4-4-4-4-4----|
|
| W                               +W
|-4-----------------------------|-(4)----------------------------------|
|-4-----------------------------|-(4)----------------------------------|
|-5-----------------------------|-(5)----------------------------------|
|-------------------------------|--------------------------------------|
|-------------------------------|--------------------------------------|
|-4-----------------------------|-(4)----------------------------------|


  E S S S S E +H        E  S S S S E +H
|--------------------|----------------------|
|--------------------|----------------------|
|-1-1-1-1-1-1-(1)----|--1--1-1-1-1-1-(1)----|
|--------------------|----------------------|
|
| W                    +W
|-1------------------|-(1)------------------|
|-3------------------|-(3)------------------|
|-3------------------|-(3)------------------|
|--------------------|----------------------|
|-1------------------|-(1)------------------|
|--------------------|----------------------|


  E S S S S S S S S S S S S S S   E E. S E. S E. S E
|-------------------------------|--------------------||
|-------------------------------|--------------------||
|-3-3-3-3-3-3-3-3-3-3-3-3-3-3-3-|---3----3----3----3-||
|-------------------------------|--------------------||
|
| W                               E E. S E. S E. S E
|-3-----------------------------|---3----3----3----3-||
|-4-----------------------------|---4----4----4----4-||
|-5-----------------------------|---5----5----5----5-||
|-------------------------------|--------------------||
|-3-----------------------------|---3----3----3----3-||
|-------------------------------|--------------------||


 Pre-Chorus
  E E E E E E E E    E  E E E E E E E   E E E E E E E E    E  E E E E E E E
|-----------------|-------------------|-----------------|--------------------|
|-----------------|-------------------|-----------------|--------------------|
|-----------------|-------------------|-3-3-3-3-3-3-3-3-|--3--3-3-3-3-3-3-3--|
|-1-1-1-1-1-1-1-1-|--1--1-1-1-1-1-1-1-|-----------------|--------------------|
|
| W                 +W                  W                 +W
|-1---------------|-(1)---------------|-3---------------|-(3)----------------|
|-1---------------|-(1)---------------|-4---------------|-(4)----------------|
|-1---------------|-(1)---------------|-5---------------|-(5)----------------|
|-----------------|-------------------|-----------------|--------------------|
|-1---------------|-(1)---------------|-3---------------|-(3)----------------|
|-----------------|-------------------|-----------------|--------------------|


  E E E E E E E E    E  E E E E E E E   Q  E E E E E E   E. S Q  Q  Q
|-----------------|-------------------|----------------|----------------||
|-----------------|-------------------|----------------|----------------||
|-----------------|-------------------|-1--1-1-1-1-1-1-|-1----1-----1---||
|-4-4-4-4-4-4-4-4-|--4--4-4-4-4-4-4-4-|----------------|---------4------||
|
| W                 +W                  W                E. S Q  Q  Q
|-4---------------|-(4)---------------|-1--------------|-1----1-----1---||
|-4---------------|-(4)---------------|-3--------------|-3----3--4--3---||
|-5---------------|-(5)---------------|-3--------------|-3----3--5--3---||
|-----------------|-------------------|----------------|---------6------||
|-----------------|-------------------|-1--------------|-1----1-----1---||
|-4---------------|-(4)---------------|----------------|---------4------||


 Chorus
  E E E E E E E E   E E E E E E E E
|-----------------|-----------------|
|-----------------|-----------------|
|-6-6-6-6-6-6-6-6-|-----------------|
|-----------------|-6-6-6-6-6-6-6-6-|
|
| W                 W
|-6---------------|-6---------------|
|-8---------------|-6---------------|
|-8---------------|-7---------------|
|-----------------|-----------------|
|-6---------------|-----------------|
|-----------------|-6---------------|


  E E E E E E E E    S  S E S S E S S E E E
|-----------------|-------------------------|
|-----------------|-------------------------|
|-----------------|-------------------------|
|-4-4-4-4-4-4-4-4-|--4--4-4-4-4-4-4-4-4-4---|
|
| W                 +W
|-4---------------|-(4)---------------------|
|-4---------------|-(4)---------------------|
|-5---------------|-(5)---------------------|
|-----------------|-------------------------|
|-----------------|-------------------------|
|-4---------------|-(4)---------------------|


  E E E E E E E E   E E E E E E E E
|-----------------|-----------------|
|-----------------|-----------------|
|-3-3-3-3-3-3-3-3-|-1-1-1-1-1-1-1-1-|
|-----------------|-----------------|
|
| W                 W
|-3---------------|-1---------------|
|-4---------------|-3---------------|
|-5---------------|-3---------------|
|-----------------|-----------------|
|-3---------------|-1---------------|
|-----------------|-----------------|


  E S S S S S S S S S S S S S S    E  E E E E E E E
|-------------------------------|--------------------||
|-------------------------------|--------------------||
|-------------------------------|--------------------||
|-4-4-4-4-4-4-4-4-4-4-4-4-4-4-4-|--4--4-4-4-4-4-4-4--||
|
| W                               +W
|-4-----------------------------|-(4)----------------||
|-4-----------------------------|-(4)----------------||
|-5-----------------------------|-(5)----------------||
|-------------------------------|--------------------||
|-------------------------------|--------------------||
|-4-----------------------------|-(4)----------------||


  E E E E E E E E   E E E E E E E E   E E E E E E E E   E E E E E E E E
|-----------------|-----------------|-----------------|------------------|
|-----------------|-----------------|-----------------|------------------|
|-3-3-3-3-3-3-3-3-|-----------------|-3-3-3-3-3-3-3-3-|-6-6-6-6-6-6-6-6--|
|-----------------|-4-4-4-4-4-4-4-4-|-----------------|------------------|
|
| W                 W                 W                 W
|-3---------------|-4---------------|-3---------------|-6----------------|
|-4---------------|-4---------------|-4---------------|-8----------------|
|-5---------------|-5---------------|-5---------------|-8----------------|
|-----------------|-----------------|-----------------|------------------|
|-3---------------|-----------------|-3---------------|-6----------------|
|-----------------|-4---------------|-----------------|------------------|


  E S S S S S S S S S S S S S S    S  S S S S S S S S S S S S S S S
|-------------------------------|-----------------------------------|
|-------------------------------|-----------------------------------|
|-------------------------------|-----------------------------------|
|-4-4-4-4-4-4-4-4-4-4-4-4-4-4-4-|--4--4-4-4-4-4-4-4-4-4-4-4-4-4-4-4-|
|
| W                               +W
|-4-----------------------------|-(4)-------------------------------|
|-4-----------------------------|-(4)-------------------------------|
|-5-----------------------------|-(5)-------------------------------|
|-------------------------------|-----------------------------------|
|-------------------------------|-----------------------------------|
|-4-----------------------------|-(4)-------------------------------|


  E S S S S S S S S S S S S S S   Q  H.
|-------------------------------|----------||
|-------------------------------|----------||
|-1-1-1-1-1-1-1-1-1-1-1-1-1-1-1-|-1--------||
|-------------------------------|----------||
|
| W                               Q  H.
|-1-----------------------------|-1--------||
|-3-----------------------------|-3--------||
|-3-----------------------------|-3--------||
|-------------------------------|----------||
|-1-----------------------------|-1--------||
|-------------------------------|----------||


   Guitar Solo
    Gtr I
    E E E E E E E E    E  E E E E E E E   E E E E E E E E
||------------------|-------------------|-----------------|
||o-----------------|-------------------|-----------------|
||o-3-3-3-3-3-3-3-3-|--3--3-3-3-3-3-3-3-|-----------------|
||------------------|-------------------|-4-4-4-4-4-4-4-4-|
|
|   Gtr II
|   W                  W                  W
||------------------|-------------------|-----------------|
||------------------|-------------------|-----------------|
||o-----------------|-------------------|-----------------|
||------------------|-------------------|-----------------|
||o-----------------|-------------------|-----------------|
||------------------|-------------------|-----------------|
||------------------|-------------------|-----------------|
|
|   Gtr III
|   W                 +W                  W
||--3---------------|-(3)---------------|-----------------|
||o-4---------------|-(4)---------------|-4---------------|
||--5---------------|-(5)---------------|-5---------------|
||------------------|-------------------|-6---------------|
||o-3---------------|-(3)---------------|-----------------|
||------------------|-------------------|-4---------------|


 1.,2.,3.             4.
  E E E E E E E E  4x Q  Q  E. E. E    Q.       E  H
|------------------||----------------|--------------------------||
|-----------------o||----------------|--------------------------||
|-1-1-1-1-1-1-1-1-o||----1-----------|-3------------------------||
|------------------||-4-----4--3--1--|--------------------------||
|
| W                4x W                E   E E  E  E E  E  E
|------------------||----------------|--------------------------||
|------------------||----------------|--------------------------||
|-----------------o||----------------|--------------------------||
|------------------||----------------|----10------10------10----||
|-----------------o||----------------|-------6-10----6-10-------||
|------------------||----------------|-----8-------8-------8----||
|------------------||----------------|-------4--8----4--8-------||
|
| W                4x Q  Q  E. E. E    Q.       E  H
|-1----------------||----------------|--------------------------||
|-3---------------o||----------------|-4------------------------||
|-3----------------||----3-----------|-5------------------------||
|------------------||-6-----6--5--3--|-5------------------------||
|-1---------------o||----1-----------|-3------------------------||
|------------------||-4-----4--3--1--|--------------------------||


 Verse
  W                      Q  E E E E E E    E  E E E E E E E   Q  E E E E E E
|----------------------|----------------|-------------------|-----------------|
|----------------------|----------------|-------------------|-----------------|
|----------------------|-3--3-3-3-3-3-3-|--3--3-3-3-3-3-3-3-|-----------------|
|----------------------|----------------|-------------------|-4--4-4-4-4-4-4--|
|
| E  E  E E  E  E E  E   W                 W                  W
|----------------------|----------------|-------------------|-----------------|
|----------------------|----------------|-------------------|-----------------|
|----------------------|----------------|-------------------|-----------------|
|------10------10------|----------------|-------------------|-----------------|
|-6-10----6-10----6-10-|----------------|-------------------|-----------------|
|-------8-------8------|----------------|-------------------|-----------------|
|-4--8----4--8----4--8-|----------------|-------------------|-----------------|
|
| W                      W                +W                  W
|----------------------|-3--------------|-(3)---------------|-4---------------|
|----------------------|-4--------------|-(4)---------------|-4---------------|
|----------------------|-5--------------|-(5)---------------|-5---------------|
|----------------------|----------------|-------------------|-----------------|
|----------------------|-3--------------|-(3)---------------|-----------------|
|----------------------|----------------|-------------------|-4---------------|


  Gtr I
   E  E E E E E E E   Q  E E E E E E
|-------------------|----------------|
|-------------------|----------------|
|-------------------|-1--1-1-1-1-1-1-|
|--4--4-4-4-4-4-4-4-|----------------|
|
| Gtr III
| +W                  W
|-(4)---------------|-1--------------|
|-(4)---------------|-3--------------|
|-(5)---------------|-3--------------|
|-------------------|----------------|
|-------------------|-1--------------|
|-(4)---------------|----------------|


   E  E E E E E E E   Q  H.        Q  H.
|-------------------|------------|----------||
|-------------------|------------|----------||
|--1--1-1-1-1-1-1-1-|-3----------|-3--------||
|-------------------|------------|----------||
|
| +W                  Q  H.        Q  H.
|-(1)---------------|------------|----------||
|-(3)---------------|-4----------|-4--------||
|-(3)---------------|-5----------|-5--------||
|-------------------|-5----------|-5--------||
|-(1)---------------|-3----------|-3--------||
|-------------------|------------|----------||


  E S S S S S S S S S S S S S S    S  S S S S S S S S S S S S S S S
|-------------------------------|-----------------------------------|
|-------------------------------|-----------------------------------|
|-3-3-3-3-3-3-3-3-3-3-3-3-3-3-3-|--3--3-3-3-3-3-3-3-3-3-3-3-3-3-3-3-|
|-------------------------------|-----------------------------------|
|
| W                               +W
|-3-----------------------------|-(3)-------------------------------|
|-4-----------------------------|-(4)-------------------------------|
|-5-----------------------------|-(5)-------------------------------|
|-------------------------------|-----------------------------------|
|-3-----------------------------|-(3)-------------------------------|
|-------------------------------|-----------------------------------|


  E S S S S S S S S S S S S S S    S  S S S S S S S S S S S S S S S
|-------------------------------|--------------------------------------|
|-------------------------------|--------------------------------------|
|-------------------------------|--------------------------------------|
|-4-4-4-4-4-4-4-4-4-4-4-4-4-4-4-|--4--4-4-4-4-4-4-4-4-4-4-4-4-4-4-4----|
|
| W                               +W
|-4-----------------------------|-(4)----------------------------------|
|-4-----------------------------|-(4)----------------------------------|
|-5-----------------------------|-(5)----------------------------------|
|-------------------------------|--------------------------------------|
|-------------------------------|--------------------------------------|
|-4-----------------------------|-(4)----------------------------------|


  E S S S S E +H        E  S S S S E +H
|--------------------|----------------------|
|--------------------|----------------------|
|-1-1-1-1-1-1-(1)----|--1--1-1-1-1-1-(1)----|
|--------------------|----------------------|
|
| W                    +W
|-1------------------|-(1)------------------|
|-3------------------|-(3)------------------|
|-3------------------|-(3)------------------|
|--------------------|----------------------|
|-1------------------|-(1)------------------|
|--------------------|----------------------|


  E E E E E E E E    E  Q  E E E E E
|-----------------|-------------------||
|-----------------|-------------------||
|-3-3-3-3-3-3-3-3-|--3--3--1-3-3-3-3--||
|-----------------|-------------------||
|
| W                 +W
|-3---------------|-(3)---------------||
|-4---------------|-(4)---------------||
|-5---------------|-(5)---------------||
|-----------------|-------------------||
|-3---------------|-(3)---------------||
|-----------------|-------------------||


 Pre-Chorus
  E E E E E E E E    E  E E E E E E E   E E E E E E E E    E  E E E E E E E
|-----------------|-------------------|-----------------|--------------------|
|-----------------|-------------------|-----------------|--------------------|
|-----------------|-------------------|-3-3-3-3-3-3-3-3-|--3--3-3-3-3-3-3-3--|
|-1-1-1-1-1-1-1-1-|--1--1-1-1-1-1-1-1-|-----------------|--------------------|
|
| W                 +W                  W                 +W
|-1---------------|-(1)---------------|-3---------------|-(3)----------------|
|-1---------------|-(1)---------------|-4---------------|-(4)----------------|
|-1---------------|-(1)---------------|-5---------------|-(5)----------------|
|-----------------|-------------------|-----------------|--------------------|
|-----------------|-------------------|-3---------------|-(3)----------------|
|-1---------------|-(1)---------------|-----------------|--------------------|


  E E E E E E E E    E  E E E E E E E   Q  E E E E E E   E. S Q  Q  Q
|-----------------|-------------------|----------------|----------------||
|-----------------|-------------------|----------------|----------------||
|-----------------|-------------------|-1--1-1-1-1-1-1-|-1----1-----1---||
|-4-4-4-4-4-4-4-4-|--4--4-4-4-4-4-4-4-|----------------|---------4------||
|
| W                 +W                  W                E. S Q  Q  Q
|-4---------------|-(4)---------------|-1--------------|-1----1-----1---||
|-4---------------|-(4)---------------|-3--------------|-3----3--4--3---||
|-5---------------|-(5)---------------|-3--------------|-3----3--5--3---||
|-----------------|-------------------|----------------|---------6------||
|-----------------|-------------------|-1--------------|-1----1-----1---||
|-4---------------|-(4)---------------|----------------|---------4------||


 Chorus
  E E E E E E E E   E E E E E E E E
|-----------------|-----------------|
|-----------------|-----------------|
|-6-6-6-6-6-6-6-6-|-----------------|
|-----------------|-6-6-6-6-6-6-6-6-|
|
| W                 W
|-6---------------|-6---------------|
|-8---------------|-6---------------|
|-8---------------|-7---------------|
|-----------------|-----------------|
|-6---------------|-----------------|
|-----------------|-6---------------|


  E E E E E E E E    S  S E S S E S S E E E
|-----------------|-------------------------|
|-----------------|-------------------------|
|-----------------|-------------------------|
|-4-4-4-4-4-4-4-4-|--4--4-4-4-4-4-4-4-4-4---|
|
| W                 +W
|-4---------------|-(4)---------------------|
|-4---------------|-(4)---------------------|
|-5---------------|-(5)---------------------|
|-----------------|-------------------------|
|-----------------|-------------------------|
|-4---------------|-(4)---------------------|


  E E E E E E E E   E E E E E E E E   E E E E E E E E    E  E E E E E E E
|-----------------|-----------------|-----------------|--------------------|
|-----------------|-----------------|-----------------|--------------------|
|-3-3-3-3-3-3-3-3-|-1-1-1-1-1-1-1-1-|-----------------|--------------------|
|-----------------|-----------------|-4-4-4-4-4-4-4-4-|--4--4-4-4-4-4-4-4--|
|
| W                 W                 W                 +W
|-3---------------|-1---------------|-4---------------|-(4)----------------|
|-4---------------|-3---------------|-4---------------|-(4)----------------|
|-5---------------|-3---------------|-5---------------|-(5)----------------|
|-----------------|-----------------|-----------------|--------------------|
|-3---------------|-1---------------|-----------------|--------------------|
|-----------------|-----------------|-4---------------|-(4)----------------|


  E E E E E E E E   E E E E E E E E   E E E E E E E E   E E E E E E E E
|-----------------|-----------------|-----------------|------------------|
|-----------------|-----------------|-----------------|------------------|
|-3-3-3-3-3-3-3-3-|-----------------|-3-3-3-3-3-3-3-3-|-6-6-6-6-6-6-6-6--|
|-----------------|-4-4-4-4-4-4-4-4-|-----------------|------------------|
|
| W                 W                 W                 W
|-3---------------|-4---------------|-3---------------|-6----------------|
|-4---------------|-4---------------|-4---------------|-8----------------|
|-5---------------|-5---------------|-5---------------|-8----------------|
|-----------------|-----------------|-----------------|------------------|
|-3---------------|-----------------|-3---------------|-6----------------|
|-----------------|-4---------------|-----------------|------------------|


  E S S S S S S S S S S S S S S    S  S S S S S S S S S S S S S S S
|-------------------------------|-----------------------------------|
|-------------------------------|-----------------------------------|
|-------------------------------|-----------------------------------|
|-4-4-4-4-4-4-4-4-4-4-4-4-4-4-4-|--4--4-4-4-4-4-4-4-4-4-4-4-4-4-4-4-|
|
| W                               +W
|-4-----------------------------|-(4)-------------------------------|
|-4-----------------------------|-(4)-------------------------------|
|-5-----------------------------|-(5)-------------------------------|
|-------------------------------|-----------------------------------|
|-------------------------------|-----------------------------------|
|-4-----------------------------|-(4)-------------------------------|


  E S S S S S S S S S S S S S S   Q  H.
|-------------------------------|----------||
|-------------------------------|----------||
|-1-1-1-1-1-1-1-1-1-1-1-1-1-1-1-|-1--------||
|-------------------------------|----------||
|
| W                               Q  H.
|-1-----------------------------|-1--------||
|-3-----------------------------|-3--------||
|-3-----------------------------|-3--------||
|-------------------------------|----------||
|-1-----------------------------|-1--------||
|-------------------------------|----------||


 Pre-Solo
  E E E E E E E E    E  E E E E E E E   E E E E E E E E    E  E E E E E E E
|-----------------|-------------------|-----------------|--------------------|
|-----------------|-------------------|-----------------|--------------------|
|-----------------|-------------------|-3-3-3-3-3-3-3-3-|--3--3-3-3-3-3-3-3--|
|-4-4-4-4-4-4-4-4-|--4--4-4-4-4-4-4-4-|-----------------|--------------------|
|
| W                 +W                  W                 +W
|-4---------------|-(4)---------------|-3---------------|-(3)----------------|
|-4---------------|-(4)---------------|-4---------------|-(4)----------------|
|-5---------------|-(5)---------------|-5---------------|-(5)----------------|
|-----------------|-------------------|-----------------|--------------------|
|-----------------|-------------------|-3---------------|-(3)----------------|
|-4---------------|-(4)---------------|-----------------|--------------------|


  E S S S S S S S S S S S S S S    S  S S S S S S S S S S S S S S S
|-------------------------------|-----------------------------------|
|-------------------------------|-----------------------------------|
|-1-1-1-1-1-1-1-1-1-1-1-1-1-1-1-|--1--1-1-1-1-1-1-1-1-1-1-1-1-1-1-1-|
|-------------------------------|-----------------------------------|
|
| W                               +W
|-1-----------------------------|-(1)-------------------------------|
|-3-----------------------------|-(3)-------------------------------|
|-3-----------------------------|-(3)-------------------------------|
|-------------------------------|-----------------------------------|
|-1-----------------------------|-(1)-------------------------------|
|-------------------------------|-----------------------------------|


  E E E E E E E E    E  E E E E E E E
|-----------------|----------------------|
|-----------------|----------------------|
|-----------------|----------------------|
|-3-3-3-3-3-3-3-3-|--3--3-3-3-3-3-3-3----|
|
| W                 +W
|-3---------------|-(3)------------------|
|-3---------------|-(3)------------------|
|-3---------------|-(3)------------------|
|-----------------|----------------------|
|-----------------|----------------------|
|-3---------------|-(3)------------------|


  E E E E E E E E    E  E E E E E E E   E E E E E E E E
|-----------------|-------------------|-----------------|
|-----------------|-------------------|-----------------|
|-----------------|-------------------|-3-3-3-3-3-3-3-3-|
|-4-4-4-4-4-4-4-4-|--4--4-4-4-4-4-4-4-|-----------------|
|
| W                 +W                  W
|-4---------------|-(4)---------------|-3---------------|
|-4---------------|-(4)---------------|-4---------------|
|-5---------------|-(5)---------------|-5---------------|
|-----------------|-------------------|-----------------|
|-----------------|-------------------|-3---------------|
|-4---------------|-(4)---------------|-----------------|


   E  E E E E E E E   E E E E E E E E   Q  H.
|-------------------|-----------------|----------||
|-------------------|-----------------|----------||
|--3--3-3-3-3-3-3-3-|-1-1-1-1-1-1-1-1-|-1--------||
|-------------------|-----------------|----------||
|
| +W                  W                 Q  H.
|-(3)---------------|-1---------------|-1--------||
|-(4)---------------|-3---------------|-3--------||
|-(5)---------------|-3---------------|-3--------||
|-------------------|-----------------|----------||
|-(3)---------------|-1---------------|-1--------||
|-------------------|-----------------|----------||


   Guitar Solo
    E E E E E E E E    E  E E E E E E E
||------------------|-------------------|
||o-----------------|-------------------|
||o-3-3-3-3-3-3-3-3-|--3--3-3-3-3-3-3-3-|
||------------------|-------------------|
|
|   W                 +W
||--3---------------|-(3)---------------|
||o-4---------------|-(4)---------------|
||--5---------------|-(5)---------------|
||------------------|-------------------|
||o-3---------------|-(3)---------------|
||------------------|-------------------|


                   1.,2.,3.             4.
  E E E E E E E E   E E E E E E E E     Q  Q  E. E. E
|-----------------|------------------||-----------------||
|-----------------|-----------------o||-----------------||
|-----------------|-1-1-1-1-1-1-1-1-o||----1------------||
|-4-4-4-4-4-4-4-4-|------------------||-4-----4--3--1---||
|
| W                 W                   Q  Q  E. E. E
|-----------------|-1----------------||-----------------||
|-4---------------|-3---------------o||-----------------||
|-5---------------|-3----------------||----3------------||
|-6---------------|------------------||-6-----6--5--3---||
|-----------------|-1---------------o||----1------------||
|-4---------------|------------------||-4-----4--3--1---||


 Break
  Q.   E H      H.      Q
|-------------|------------||
|-------------|------------||
|-3-----------|---------1--||
|-------------|------------||
|
| Q.   E H      H.      Q
|-------------|------------||
|-4-----------|---------3--||
|-5-----------|---------3--||
|-5-----------|---------3--||
|-3-----------|---------1--||
|-------------|------------||


   Interlude
    Q  H.        H..       E   Q  H.        H.      Q
||-------------|-------------|------------|------------|
||o------------|-------------|------------|------------|
||o-3----------|-----------1-|-3----------|---------1--|
||-------------|-------------|------------|------------|
|
|   Q  H.        H..       E   Q  H.        H.      Q
||-------------|-------------|------------|------------|
||o-4----------|-----------3-|-4----------|---------3--|
||--5----------|-----------3-|-5----------|---------3--|
||--5----------|-----------3-|-5----------|---------3--|
||o-3----------|-----------1-|-3----------|---------1--|
||-------------|-------------|------------|------------|


                         1.
  Q  H.        W          W          +H.      Q
|------------|----------|----------|---------------||
|------------|----------|----------|--------------o||
|-3----------|----------|----------|----------1---o||
|------------|----------|-4--------|-(4)-----------||
|
| Q  H.        W          W          +H.      Q
|------------|----------|----------|---------------||
|-4----------|----------|----------|----------3---o||
|-5----------|----------|-5--------|-(5)------3----||
|-5----------|----------|-6--------|-(6)------3----||
|-3----------|----------|-6--------|-(6)------1---o||
|------------|----------|-4--------|-(4)-----------||


  2.
  W          +W           +W
|----------|------------|--------||
|----------|------------|--------||
|----------|------------|--------||
|-4--------|-(4)--------|-(4)----||
|
| W          +W           +W
|----------|------------|--------||
|----------|------------|--------||
|-5--------|-(5)--------|-(5)----||
|-6--------|-(6)--------|-(6)----||
|-6--------|-(6)--------|-(6)----||
|-4--------|-(4)--------|-(4)----||


   Tempo Change
    Q=170
    E S S S S S S S S S S S S S S    S  S S S S S S S S S S S S S S S
||--------------------------------|-----------------------------------|
||o-------------------------------|-----------------------------------|
||o-3-3-3-3-3-3-3-3-3-3-3-3-3-3-3-|--3--3-3-3-3-3-3-3-3-3-3-3-3-3-3-3-|
||--------------------------------|-----------------------------------|
|
|   W                               +W
||--3-----------------------------|-(3)-------------------------------|
||o-4-----------------------------|-(4)-------------------------------|
||--5-----------------------------|-(5)-------------------------------|
||--------------------------------|-----------------------------------|
||o-3-----------------------------|-(3)-------------------------------|
||--------------------------------|-----------------------------------|


  E S S S S S S S S S S S S S S    E  S S S S S S E S S S S S S
|-------------------------------|-----------------------------------||
|-------------------------------|----------------------------------o||
|-------------------------------|-----------------1-1-1-1-1-1-1----o||
|-4-4-4-4-4-4-4-4-4-4-4-4-4-4-4-|--4--4-4-4-4-4-4-------------------||
|
| W                               +H              H
|-------------------------------|-----------------1-----------------||
|-4-----------------------------|-(4)-------------3----------------o||
|-5-----------------------------|-(5)-------------3-----------------||
|-6-----------------------------|-(6)-------------------------------||
|-------------------------------|-----------------1----------------o||
|-4-----------------------------|-(4)-------------------------------||


 Guitar Solo
  E E E E E E E E   E E E E E E E E
|-----------------|-----------------|
|-----------------|-----------------|
|---------3-3-3-3-|-1-1-1-1-3-3-3-3-|
|-4-4-4-4---------|-----------------|
|
| H       H         H       H
|-----------------|-----------------|
|-4-------4-------|-3-------4-------|
|-5-------5-------|-3-------5-------|
|-6-------5-------|-3-------5-------|
|---------3-------|-1-------3-------|
|-4---------------|-----------------|


  E S S S S S S S S S S S S S S   E S S S S S S S S S S S S S S
|-------------------------------|-------------------------------|
|-------------------------------|-------------------------------|
|-------------------------------|-1-1-1-1-1-1-1-1-1-1-1-1-1-1-1-|
|-4-4-4-4-4-4-4-4-4-4-4-4-4-4-4-|-------------------------------|
|
| W                               W
|-------------------------------|-1-----------------------------|
|-4-----------------------------|-3-----------------------------|
|-5-----------------------------|-3-----------------------------|
|-6-----------------------------|-------------------------------|
|-------------------------------|-1-----------------------------|
|-4-----------------------------|-------------------------------|


  E E E E E E E E   E E E E E E E E
|-----------------|-----------------|
|-----------------|-----------------|
|-3-3-3-3---------|-1-1-1-1-3-3-3-3-|
|---------4-4-4-4-|-----------------|
|
| H       H         H       H
|-3---------------|-----------------|
|-4-------4-------|-3-------4-------|
|-5-------5-------|-3-------5-------|
|---------6-------|-3-------5-------|
|-3---------------|-1-------3-------|
|---------4-------|-----------------|


  E S S S S S S S S S S S S S S   E E E E E E E E
|-------------------------------|------------------||
|-------------------------------|------------------||
|-------------------------------|---------1-1-1-1--||
|-3-3-3-3-3-3-3-3-3-3-3-3-3-3-3-|-4-4-4-4----------||
|
| W                               H       H
|-------------------------------|---------1--------||
|-3-----------------------------|-4-------3--------||
|-3-----------------------------|-5-------3--------||
|-5-----------------------------|-6----------------||
|-------------------------------|---------1--------||
|-3-----------------------------|-4----------------||


    E S S S S S S S S S S S S S S    S  S S S S S S S S S S S S S S S
||--------------------------------|-----------------------------------|
||o-------------------------------|-----------------------------------|
||o-3-3-3-3-3-3-3-3-3-3-3-3-3-3-3-|--3--3-3-3-3-3-3-3-3-3-3-3-3-3-3-3-|
||--------------------------------|-----------------------------------|
|
|   W                               +W
||--3-----------------------------|-(3)-------------------------------|
||o-4-----------------------------|-(4)-------------------------------|
||--5-----------------------------|-(5)-------------------------------|
||--------------------------------|-----------------------------------|
||o-3-----------------------------|-(3)-------------------------------|
||--------------------------------|-----------------------------------|


  E S S S S S S S S S S S S S S    E  S S S S S S E S S S S S S
|-------------------------------|-----------------------------------||
|-------------------------------|----------------------------------o||
|-------------------------------|-----------------1-1-1-1-1-1-1----o||
|-4-4-4-4-4-4-4-4-4-4-4-4-4-4-4-|--4--4-4-4-4-4-4-------------------||
|
| W                               +H              H
|-------------------------------|-----------------1-----------------||
|-4-----------------------------|-(4)-------------3----------------o||
|-5-----------------------------|-(5)-------------3-----------------||
|-6-----------------------------|-(6)-------------------------------||
|-------------------------------|-----------------1----------------o||
|-4-----------------------------|-(4)-------------------------------||


 Guitar Solo
  E E E E E E E E   E E E E E E E E
|-----------------|-----------------|
|-----------------|-----------------|
|---------3-3-3-3-|-1-1-1-1-3-3-3-3-|
|-4-4-4-4---------|-----------------|
|
| H       H         H       H
|-----------------|-----------------|
|-4-------4-------|-3-------4-------|
|-5-------5-------|-3-------5-------|
|-6-------5-------|-3-------5-------|
|---------3-------|-1-------3-------|
|-4---------------|-----------------|


  E S S S S S S S S S S S S S S   E S S S S S S S S S S S S S S
|-------------------------------|-------------------------------|
|-------------------------------|-------------------------------|
|-------------------------------|-1-1-1-1-1-1-1-1-1-1-1-1-1-1-1-|
|-4-4-4-4-4-4-4-4-4-4-4-4-4-4-4-|-------------------------------|
|
| W                               W
|-------------------------------|-1-----------------------------|
|-4-----------------------------|-3-----------------------------|
|-5-----------------------------|-3-----------------------------|
|-6-----------------------------|-------------------------------|
|-------------------------------|-1-----------------------------|
|-4-----------------------------|-------------------------------|


  E E E E E E E E   E E E E E E E E
|-----------------|-----------------|
|-----------------|-----------------|
|-3-3-3-3---------|-1-1-1-1-3-3-3-3-|
|---------4-4-4-4-|-----------------|
|
| H       H         H       H
|-3---------------|-----------------|
|-4-------4-------|-3-------4-------|
|-5-------5-------|-3-------5-------|
|---------6-------|-3-------5-------|
|-3---------------|-1-------3-------|
|---------4-------|-----------------|


  E S S S S S S S S S S S S S S   E E E E E E E E
|-------------------------------|------------------||
|-------------------------------|------------------||
|-------------------------------|---------1-1-1-1--||
|-3-3-3-3-3-3-3-3-3-3-3-3-3-3-3-|-4-4-4-4----------||
|
| W                               H       H
|-------------------------------|---------1--------||
|-3-----------------------------|-4-------3--------||
|-3-----------------------------|-5-------3--------||
|-5-----------------------------|-6----------------||
|-------------------------------|---------1--------||
|-3-----------------------------|-4----------------||


   Pre-Solo
    Q=200
    Q  H.        Q  H.        Q  H.        W
||-------------|------------|------------|-------||
||o------------|------------|------------|------o||
||o-3----------|-3----------|-3----------|------o||
||-------------|------------|------------|-4-----||
|
|   Q  H.        Q  H.        Q  H.        W
||-------------|------------|------------|-------||
||o-4----------|-4----------|-4----------|-4----o||
||--5----------|-5----------|-5----------|-5-----||
||--5----------|-5----------|-5----------|-6-----||
||o-3----------|-3----------|-3----------|------o||
||-------------|------------|------------|-4-----||


  W          W
|----------|------||
|----------|------||
|----------|------||
|-3--------|------||
|
| W          W
|----------|------||
|-3--------|------||
|-3--------|------||
|-5--------|------||
|----------|------||
|-3--------|------||


 Guitar Solo
  E S S S S S S S S S S S S S S    S  S S S S S S S S S S S S S S S
|-------------------------------|-----------------------------------|
|-------------------------------|-----------------------------------|
|-3-3-3-3-3-3-3-3-3-3-3-3-3-3-3-|--3--3-3-3-3-3-3-3-3-3-3-3-3-3-3-3-|
|-------------------------------|-----------------------------------|
|
| W                               +W
|-3-----------------------------|-(3)-------------------------------|
|-4-----------------------------|-(4)-------------------------------|
|-5-----------------------------|-(5)-------------------------------|
|-------------------------------|-----------------------------------|
|-3-----------------------------|-(3)-------------------------------|
|-------------------------------|-----------------------------------|


  E S S S S S S S S S S S S S S    S  S S S S S S S S S S S S S S S
|-------------------------------|--------------------------------------|
|-------------------------------|--------------------------------------|
|-------------------------------|--------------------------------------|
|-4-4-4-4-4-4-4-4-4-4-4-4-4-4-4-|--4--4-4-4-4-4-4-4-4-4-4-4-4-4-4-4----|
|
| W                               +W
|-------------------------------|--------------------------------------|
|-4-----------------------------|-(4)----------------------------------|
|-5-----------------------------|-(5)----------------------------------|
|-6-----------------------------|-(6)----------------------------------|
|-------------------------------|--------------------------------------|
|-4-----------------------------|-(4)----------------------------------|


  E S S S S E +H        E  S S S S E +H
|--------------------|----------------------|
|--------------------|----------------------|
|-1-1-1-1-1-1-(1)----|--1--1-1-1-1-1-(1)----|
|--------------------|----------------------|
|
| W                    +W
|-1------------------|-(1)------------------|
|-3------------------|-(3)------------------|
|-3------------------|-(3)------------------|
|--------------------|----------------------|
|-1------------------|-(1)------------------|
|--------------------|----------------------|


  E E E E E E E E    E  Q  E E E E E
|-----------------|-----5--5-3--------||
|-----------------|-------------------||
|-3-3-3-3-3-3-3-3-|--3---------3-3-3--||
|-----------------|-------------------||
|
| W                 +W
|-3---------------|-(3)---------------||
|-4---------------|-(4)---------------||
|-5---------------|-(5)---------------||
|-----------------|-------------------||
|-3---------------|-(3)---------------||
|-----------------|-------------------||


 Slide
  E S S S S S S S S S S S S S S    S  S S S S S S S S S S S S S S S
|-------------------------------|-----------------------------------|
|-------------------------------|-----------------------------------|
|-3-3-3-3-3-3-3-3-3-3-3-3-3-3-3-|--3--3-3-3-3-3-3-3-3-3-3-3-3-3-3-3-|
|-------------------------------|-----------------------------------|
|
| W                               +W
|-3-----------------------------|-(3)-------------------------------|
|-4-----------------------------|-(4)-------------------------------|
|-5-----------------------------|-(5)-------------------------------|
|-------------------------------|-----------------------------------|
|-3-----------------------------|-(3)-------------------------------|
|-------------------------------|-----------------------------------|


  E S S S S S S S S S S S S S S    S  S S S S S S S S S S S S S S S
|-------------------------------|--------------------------------------|
|-------------------------------|--------------------------------------|
|-------------------------------|--------------------------------------|
|-4-4-4-4-4-4-4-4-4-4-4-4-4-4-4-|--4--4-4-4-4-4-4-4-4-4-4-4-4-4-4-4----|
|
| W                               +W
|-------------------------------|--------------------------------------|
|-4-----------------------------|-(4)----------------------------------|
|-5-----------------------------|-(5)----------------------------------|
|-6-----------------------------|-(6)----------------------------------|
|-------------------------------|--------------------------------------|
|-4-----------------------------|-(4)----------------------------------|


  E S S S S S S S S S S S S S S
|-------------------------------|
|-------------------------------|
|-1-1-1-1-1-1-1-1-1-1-1-1-1-1-1-|
|-------------------------------|
|
| W
|-1-----------------------------|
|-3-----------------------------|
|-3-----------------------------|
|-------------------------------|
|-1-----------------------------|
|-------------------------------|


   S  S S S S S S S S S S S S S S S   W           W
|-----------------------------------|----------|--------|
|-----------------------------------|----------|--------|
|--1--1-1-1-1-1-1-1-1-1-1-1-1-1-1-1-|-3--------|--3-----|
|-----------------------------------|----------|--------|
|
| +W                                  W          +W
|-(1)-------------------------------|-3--------|-(3)----|
|-(3)-------------------------------|-4--------|-(4)----|
|-(3)-------------------------------|-5--------|-(5)----|
|-----------------------------------|----------|--------|
|-(1)-------------------------------|-3--------|-(3)----|
|-----------------------------------|----------|--------|


  E S S S S S S S S S S S S S S    E  E E E H      E E E H    E   E E H.
|-------------------------------|----------------|--------------|-----------||
|-------------------------------|----------------|--------------|-----------||
|-------------------------------|----------------|-3-3--------3-|-3-3-------||
|-1-1-1-1-1-1-1-1-1-1-1-1-1-1-1-|--1--1---1-1----|--------------|-----------||
|
| W                               +W               E E E H    E   E E H.
|-1-----------------------------|-(1)------------|--------------|-----------||
|-1-----------------------------|-(1)------------|-4-4--------3-|-4-4-------||
|-1-----------------------------|-(1)------------|-5-5--------5-|-5-5-------||
|-------------------------------|----------------|-5-5--------5-|-5-5-------||
|-------------------------------|----------------|-3-3--------3-|-3-3-------||
|-1-----------------------------|-(1)------------|--------------|-----------||


 Fast Tapping
  E S S S S S S S S S S S S S S
|-------------------------------|
|-------------------------------|
|-------------------------------|
|-4-4-4-4-4-4-4-4-4-4-4-4-4-4-4-|
|
| W
|-------------------------------|
|-4-----------------------------|
|-5-----------------------------|
|-6-----------------------------|
|-------------------------------|
|-4-----------------------------|


   S  S S S S S S S S S S S S S S S   Q  H.        Q  H.
|-----------------------------------|------------|----------||
|-----------------------------------|------------|----------||
|-----------------------------------|-1----------|----1-----||
|--4--4-4-4-4-4-4-4-4-4-4-4-4-4-4-4-|------------|----------||
|
| +W                                  Q  H.        Q  H.
|-----------------------------------|------------|----------||
|-(4)-------------------------------|-3----------|----3-----||
|-(5)-------------------------------|-3----------|----3-----||
|-(6)-------------------------------|-3----------|----3-----||
|-----------------------------------|-1----------|----1-----||
|-(4)-------------------------------|------------|----------||


 Chorus
  E E E E E E E E   E E E E E E E E   E E E E E E E E    S  S E S S E S S E Q
|-----------------|-----------------|-----------------|------------------------|
|-----------------|-----------------|-----------------|------------------------|
|-6-6-6-6-6-6-6-6-|-----------------|-----------------|------------------------|
|-----------------|-6-6-6-6-6-6-6-6-|-4-4-4-4-4-4-4-4-|--4--4-4-4-4-4-4-4-4-4--|
|
| W                 W                 W                 +W
|-----------------|-----------------|-----------------|------------------------|
|-8---------------|-6---------------|-4---------------|-(4)--------------------|
|-8---------------|-7---------------|-5---------------|-(5)--------------------|
|-8---------------|-8---------------|-6---------------|-(6)--------------------|
|-6---------------|-----------------|-----------------|------------------------|
|-----------------|-6---------------|-4---------------|-(4)--------------------|


  E S S S S S S S S S S S S S S   E S S S S S S S S S S S S S S
|-------------------------------|-------------------------------|
|-------------------------------|-------------------------------|
|-3-3-3-3-3-3-3-3-3-3-3-3-3-3-3-|-1-1-1-1-1-1-1-1-1-1-1-1-1-1-1-|
|-------------------------------|-------------------------------|
|
| W                               W
|-3-----------------------------|-1-----------------------------|
|-4-----------------------------|-3-----------------------------|
|-5-----------------------------|-3-----------------------------|
|-------------------------------|-------------------------------|
|-3-----------------------------|-1-----------------------------|
|-------------------------------|-------------------------------|


  E E E E E E E E    E  E E E E E E E
|-----------------|-------------------|
|-----------------|-------------------|
|-----------------|-------------------|
|-4-4-4-4-4-4-4-4-|--4--4-4-4-4-4-4-4-|
|
| W                 +W
|-----------------|-------------------|
|-4---------------|-(4)---------------|
|-5---------------|-(5)---------------|
|-6---------------|-(6)---------------|
|-----------------|-------------------|
|-4---------------|-(4)---------------|


  E E E E E E E E   E E E E E E E E   E E E E E E E E   E E E E E E E E
|-----------------|-----------------|-----------------|------------------||
|-----------------|-----------------|-----------------|------------------||
|-3-3-3-3-3-3-3-3-|-----------------|-3-3-3-3-3-3-3-3-|-6-6-6-6-6-6-6-6--||
|-----------------|-4-4-4-4-4-4-4-4-|-----------------|------------------||
|
| W                 W                 W                 W
|-3---------------|-----------------|-3---------------|------------------||
|-4---------------|-4---------------|-4---------------|-8----------------||
|-5---------------|-5---------------|-5---------------|-8----------------||
|-----------------|-6---------------|-----------------|-8----------------||
|-3---------------|-----------------|-3---------------|-6----------------||
|-----------------|-4---------------|-----------------|------------------||


  E E E E E E E E    E  E E E E E E E   E E E E E E E E   E E E E E E E E
|-----------------|-------------------|-----------------|------------------||
|-----------------|-------------------|-----------------|------------------||
|-----------------|-------------------|-3-3-3-3-3-3-3-3-|-1-1-1-1-1-1-1-1--||
|-1-1-1-1-1-1-1-1-|--1--1-1-1-1-1-1-1-|-----------------|------------------||
|
| W                 +W                  W                 W
|-1---------------|-(1)---------------|-----------------|------------------||
|-1---------------|-(1)---------------|-4---------------|-3----------------||
|-1---------------|-(1)---------------|-5---------------|-3----------------||
|-----------------|-------------------|-5---------------|-3----------------||
|-----------------|-------------------|-3---------------|-1----------------||
|-1---------------|-(1)---------------|-----------------|------------------||


 Guitar Solo
  E E E E E E E E    E  E E E E E E E   E E E E E E E E    E  E E E E E E E
|-----------------|-------------------|-----------------|--------------------|
|-----------------|-------------------|-----------------|--------------------|
|-----------------|-------------------|-3-3-3-3-3-3-3-3-|--3--3-3-3-3-3-3-3--|
|-4-4-4-4-4-4-4-4-|--4--4-4-4-4-4-4-4-|-----------------|--------------------|
|
| W                 +W                  W                 +W
|-----------------|-------------------|-3---------------|-(3)----------------|
|-4---------------|-(4)---------------|-4---------------|-(4)----------------|
|-5---------------|-(5)---------------|-5---------------|-(5)----------------|
|-6---------------|-(6)---------------|-----------------|--------------------|
|-----------------|-------------------|-3---------------|-(3)----------------|
|-4---------------|-(4)---------------|-----------------|--------------------|


  E S S S S S S S S S S S S S S    S  S S S S S S S S S S S S S S S
|-------------------------------|-----------------------------------|
|-------------------------------|-----------------------------------|
|-1-1-1-1-1-1-1-1-1-1-1-1-1-1-1-|--1--1-1-1-1-1-1-1-1-1-1-1-1-1-1-1-|
|-------------------------------|-----------------------------------|
|
| W                               +W
|-1-----------------------------|-(1)-------------------------------|
|-3-----------------------------|-(3)-------------------------------|
|-3-----------------------------|-(3)-------------------------------|
|-------------------------------|-----------------------------------|
|-1-----------------------------|-(1)-------------------------------|
|-------------------------------|-----------------------------------|


  E E E E E E E E   E E E E E E E E
|-----------------|--------------------||
|-----------------|--------------------||
|-----------------|---------1-1-1-1----||
|-3-3-3-3-3-3-3-3-|-4-4-4-4------------||
|
| W                 H       H
|-----------------|---------1----------||
|-3---------------|-4-------3----------||
|-3---------------|-5-------3----------||
|-5---------------|-6------------------||
|-----------------|---------1----------||
|-3---------------|-4------------------||


  E E E E E E E E    E  E E E E E E E   E Q  E E Q  E    E  Q  E E Q  E
|-----------------|-------------------|---------------|------------------|
|-----------------|-------------------|---------------|------------------|
|-----------------|-------------------|-3-3--3-3-3--3-|--3--3--3-3-3--3--|
|-4-4-4-4-4-4-4-4-|--4--4-4-4-4-4-4-4-|---------------|------------------|
|
| W                 +W                  W               +W
|-----------------|-------------------|-3-------------|-(3)--------------|
|-4---------------|-(4)---------------|-4-------------|-(4)--------------|
|-5---------------|-(5)---------------|-5-------------|-(5)--------------|
|-6---------------|-(6)---------------|---------------|------------------|
|-----------------|-------------------|-3-------------|-(3)--------------|
|-4---------------|-(4)---------------|---------------|------------------|


  E E E E E E E E    E  E E E E E E E   E E E E E E E E    E  E E E E E E E
|-----------------|-------------------|-----------------|--------------------||
|-----------------|-------------------|-----------------|--------------------||
|-1-1-1-1-1-1-1-1-|--1--1-1-1-1-1-1-1-|-3-3-3-3-3-3-3-3-|--3--3-3-3-3-3-3-3--||
|-----------------|-------------------|-----------------|--------------------||
|
| W                 +W                  W                 +W
|-1---------------|-(1)---------------|-3---------------|-(3)----------------||
|-3---------------|-(3)---------------|-4---------------|-(4)----------------||
|-3---------------|-(3)---------------|-5---------------|-(5)----------------||
|-----------------|-------------------|-----------------|--------------------||
|-1---------------|-(1)---------------|-3---------------|-(3)----------------||
|-----------------|-------------------|-----------------|--------------------||


 Interlude
  W          +H     Q  Q    W          +W
|----------|--------------|----------|--------|
|----------|--------------|-6--------|-(6)----|
|-3--------|-(3)----3--6--|----------|--------|
|----------|--------------|----------|--------|
|
| W          +W             W          +W
|-3--------|-(3)----------|----------|--------|
|-4--------|-(4)----------|-4--------|-(4)----|
|-5--------|-(5)----------|-5--------|-(5)----|
|----------|--------------|-6--------|-(6)----|
|-3--------|-(3)----------|----------|--------|
|----------|--------------|-4--------|-(4)----|


  W          +Q.   Q.   Q    W          +Q   Q  Q  Q
|----------|---------------|----------|----------------|
|----------|-------5----3--|----------|---------5--8---|
|-1--------|-(1)-----------|-6--------|-(6)--8---------|
|----------|---------------|----------|----------------|
|
| W          +W              W          +W
|-1--------|-(1)-----------|----------|----------------|
|-3--------|-(3)-----------|-8--------|-(8)------------|
|-3--------|-(3)-----------|-8--------|-(8)------------|
|----------|---------------|-8--------|-(8)------------|
|-1--------|-(1)-----------|-6--------|-(6)------------|
|----------|---------------|----------|----------------|


   W           +Q.    Q.    Q     W           +Q.    Q.    Q
|-----------|------------------|-----------|-------------------|
|-10--------|-(10)---13--------|-----------|-------------------|
|-----------|--------------13--|-11--------|-(11)---13----15---|
|-----------|------------------|-----------|-------------------|
|
|  W           +W                 W           +W
|--3--------|--(3)-------------|-----------|-------------------|
|--4--------|--(4)-------------|--4--------|--(4)--------------|
|--5--------|--(5)-------------|--5--------|--(5)--------------|
|-----------|------------------|--6--------|--(6)--------------|
|--3--------|--(3)-------------|-----------|-------------------|
|-----------|------------------|--4--------|--(4)--------------|


   W           +W           Q  H.        W
|-----------|-------------|------------|------|
|-----------|-------------|------------|------|
|-13--------|-(13)--------|------------|------|
|-----------|-------------|-3----------|------|
|
|  W           +W           Q  H.        W
|--1--------|--(1)--------|------------|------|
|--3--------|--(3)--------|-3----------|------|
|--3--------|--(3)--------|-3----------|------|
|-----------|-------------|-5----------|------|
|--1--------|--(1)--------|------------|------|
|-----------|-------------|-3----------|------|


  E E E E E E E E    E  E E E E E E E   E E E E E E E E    E  E E E E E E E
|-----------------|-------------------|-----------------|--------------------|
|-----------------|-------------------|-----------------|--------------------|
|-----------------|-------------------|-3-3-3-3-3-3-3-3-|--3--3-3-3-3-3-3-3--|
|-4-4-4-4-4-4-4-4-|--4--4-4-4-4-4-4-4-|-----------------|--------------------|
|
| W                 +W                  W                 +W
|-4---------------|-(4)---------------|-3---------------|-(3)----------------|
|-4---------------|-(4)---------------|-4---------------|-(4)----------------|
|-5---------------|-(5)---------------|-5---------------|-(5)----------------|
|-----------------|-------------------|-----------------|--------------------|
|-----------------|-------------------|-3---------------|-(3)----------------|
|-4---------------|-(4)---------------|-----------------|--------------------|


  E S S S S S S S S S S S S S S    S  S S S S S S S S S S S S S S S
|-------------------------------|-----------------------------------|
|-------------------------------|-----------------------------------|
|-1-1-1-1-1-1-1-1-1-1-1-1-1-1-1-|--1--1-1-1-1-1-1-1-1-1-1-1-1-1-1-1-|
|-------------------------------|-----------------------------------|
|
| W                               +W
|-1-----------------------------|-(1)-------------------------------|
|-3-----------------------------|-(3)-------------------------------|
|-3-----------------------------|-(3)-------------------------------|
|-------------------------------|-----------------------------------|
|-1-----------------------------|-(1)-------------------------------|
|-------------------------------|-----------------------------------|


  E E E E E E E E    E  E E E E E E E
|-----------------|----------------------|
|-----------------|----------------------|
|-----------------|----------------------|
|-3-3-3-3-3-3-3-3-|--3--3-3-3-3-3-3-3----|
|
| W                 +W
|-----------------|----------------------|
|-3---------------|-(3)------------------|
|-3---------------|-(3)------------------|
|-5---------------|-(5)------------------|
|-----------------|----------------------|
|-3---------------|-(3)------------------|


  E E E E E E E E    E  E E E E E E E   E E E E E E E E
|-----------------|-------------------|-----------------|
|-----------------|-------------------|-----------------|
|-----------------|-------------------|-3-3-3-3-3-3-3-3-|
|-4-4-4-4-4-4-4-4-|--4--4-4-4-4-4-4-4-|-----------------|
|
| W                 +W                  W
|-4---------------|-(4)---------------|-3---------------|
|-4---------------|-(4)---------------|-4---------------|
|-5---------------|-(5)---------------|-5---------------|
|-----------------|-------------------|-----------------|
|-----------------|-------------------|-3---------------|
|-4---------------|-(4)---------------|-----------------|


   E  E E E E E E E   E E E E E E E E   Q  H.
|-------------------|-----------------|----------||
|-------------------|-----------------|----------||
|--3--3-3-3-3-3-3-3-|-1-1-1-1-1-1-1-1-|-1--------||
|-------------------|-----------------|----------||
|
| +W                  W                 Q  H.
|-(3)---------------|-1---------------|-1--------||
|-(4)---------------|-3---------------|-3--------||
|-(5)---------------|-3---------------|-3--------||
|-------------------|-----------------|----------||
|-(3)---------------|-1---------------|-1--------||
|-------------------|-----------------|----------||


   Re-Intro
    E S S S S S S S S S S S S S S    S  S S S S S S S S S S S S S S S
||--------------------------------|-----------------------------------|
||o-------------------------------|-----------------------------------|
||o-3-3-3-3-3-3-3-3-3-3-3-3-3-3-3-|--3--3-3-3-3-3-3-3-3-3-3-3-3-3-3-3-|
||--------------------------------|-----------------------------------|
|
|   W                               +W
||--3-----------------------------|-(3)-------------------------------|
||o-4-----------------------------|-(4)-------------------------------|
||--5-----------------------------|-(5)-------------------------------|
||--------------------------------|-----------------------------------|
||o-3-----------------------------|-(3)-------------------------------|
||--------------------------------|-----------------------------------|


  E S S S S S S S S S S S S S S    S  S S S S S S S S S S S S S S S
|-------------------------------|--------------------------------------|
|-------------------------------|--------------------------------------|
|-------------------------------|--------------------------------------|
|-4-4-4-4-4-4-4-4-4-4-4-4-4-4-4-|--4--4-4-4-4-4-4-4-4-4-4-4-4-4-4-4----|
|
| W                               +W
|-4-----------------------------|-(4)----------------------------------|
|-4-----------------------------|-(4)----------------------------------|
|-5-----------------------------|-(5)----------------------------------|
|-------------------------------|--------------------------------------|
|-------------------------------|--------------------------------------|
|-4-----------------------------|-(4)----------------------------------|


  E S S S S S S S S S S S S S S    S  S S S S S S S S S S S S S S S
|-------------------------------|-----------------------------------|
|-------------------------------|-----------------------------------|
|-------------------------------|-----------------------------------|
|-1-1-1-1-1-1-1-1-1-1-1-1-1-1-1-|--1--1-1-1-1-1-1-1-1-1-1-1-1-1-1-1-|
|
| W                               +W
|-1-----------------------------|-(1)-------------------------------|
|-1-----------------------------|-(1)-------------------------------|
|-1-----------------------------|-(1)-------------------------------|
|-------------------------------|-----------------------------------|
|-------------------------------|-----------------------------------|
|-1-----------------------------|-(1)-------------------------------|


 1.
  E S S S S S S S S S S S S S S    S  S S S S S S S S S S S S S S S
|-------------------------------|---------------------------------------||
|-------------------------------|--------------------------------------o||
|-------------------------------|--------------------------------------o||
|-4-4-4-4-4-4-4-4-4-4-4-4-4-4-4-|--4--4-4-4-4-4-4-4-4-4-4-4-4-4-4-4-----||
|
| W                               +W
|-4-----------------------------|-(4)-----------------------------------||
|-4-----------------------------|-(4)----------------------------------o||
|-5-----------------------------|-(5)-----------------------------------||
|-------------------------------|---------------------------------------||
|-------------------------------|--------------------------------------o||
|-4-----------------------------|-(4)-----------------------------------||


  2.
  W          +W
|----------|--------||
|----------|--------||
|----------|--------||
|-3--------|-(3)----||
|
| W          +W
|-3--------|-(3)----||
|-3--------|-(3)----||
|-3--------|-(3)----||
|----------|--------||
|----------|--------||
|-3--------|-(3)----||


 Outro
  E E E E E E E E   E E E E E E E E   E E E E E E E E   E E E E E E E E
|-----------------|-----------------|-----------------|------------------|
|-----------------|-----------------|-----------------|------------------|
|-3-3-3-3---3---3-|---3---3-3-3-3---|-6-6-6-6---6---6-|---6---6-6-6-6----|
|-----------------|-----------------|-----------------|------------------|
|
| E E E E E E E E   E E E E E E E E   E E E E E E E E   E E E E E E E E
|-----------------|-----------------|-----------------|------------------|
|-4-4-4-4---4---4-|---4---4-4-4-4---|-8-8-8-8---8---8-|---8---8-8-8-8----|
|-5-5-5-5---5---5-|---5---5-5-5-5---|-8-8-8-8---8---8-|---8---8-8-8-8----|
|-5-5-5-5---5---5-|---5---5-5-5-5---|-8-8-8-8---8---8-|---8---8-8-8-8----|
|-3-3-3-3---3---3-|---3---3-3-3-3---|-6-6-6-6---6---6-|---6---6-6-6-6----|
|-----------------|-----------------|-----------------|------------------|


  E E E E E E E E   E E E E E E E E   W          +W
|-----------------|-----------------|----------|------------|
|-----------------|-----------------|----------|------------|
|-----------------|-----------------|----------|------------|
|-1-1-1-1---1---1-|---1---1-1-1-1---|-3--------|-(3)--------|
|
| E E E E E E E E   E E E E E E E E   W          +W
|-----------------|-----------------|-3--------|-(3)--------|
|-1-1-1-1---1---1-|---1---1-1-1-1---|-3--------|-(3)--------|
|-----------------|-----------------|-3--------|-(3)--------|
|-3-3-3-3---3---3-|---3---3-3-3-3---|-5--------|-(5)--------|
|-3-3-3-3---3---3-|---3---3-3-3-3---|----------|------------|
|-1-1-1-1---1---1-|---1---1-1-1-1---|-3--------|-(3)--------|


  +W           +W           +W           +W
|------------|------------|------------|--------||
|------------|------------|------------|--------||
|------------|------------|------------|--------||
|-(3)--------|-(3)--------|-(3)--------|-(3)----||
|
| +W           +W           +W           +W
|-(3)--------|-(3)--------|-(3)--------|-(3)----||
|-(3)--------|-(3)--------|-(3)--------|-(3)----||
|-(3)--------|-(3)--------|-(3)--------|-(3)----||
|-(5)--------|-(5)--------|-(5)--------|-(5)----||
|------------|------------|------------|--------||
|-(3)--------|-(3)--------|-(3)--------|-(3)----||


  E E E E E E E E   Q  H.        S S S S Q  E. E. E   Q  H.
|-----------------|------------|--------------------|----------*|
|-----------------|------------|--------------------|----------*|
|-----------------|------------|-3-3-3-3-3--3--3--3-|-3--------*|
|-3-3-3-3-3-3-3-3-|-3----------|--------------------|----------*|
|
| W                 Q  H.        W                    Q  H.
|-----------------|------------|-3------------------|-3--------*|
|-3---------------|-3----------|-4------------------|-4--------*|
|-3---------------|-3----------|-5------------------|-5--------*|
|-5---------------|-5----------|--------------------|----------*|
|-----------------|------------|-3------------------|-3--------*|
|-3---------------|-3----------|--------------------|----------*|



Duration Legend
---------------
W - whole; H - half; Q - quarter; E - 8th; S - 16th; T - 32nd; X - 64th; a - acciaccatura
+ - note tied to previous; . - note dotted; .. - note double dotted
Uncapitalized letters represent notes that are staccato (1/2 duration)
Irregular groupings are notated above the duration line
Duration letters will always appear directly above the note/fret number it represents the
duration for.  Duration letters with no fret number below them represent rests.  Multi-
bar rests are notated in the form Wxn, where n is the number of bars to rest for.  Low
melody durations appear below the staff

Tablature Legend
----------------
 h   - hammer-on
 p   - pull-off
 b   - bend
 pb  - pre-bend
 r   - bend release (if no number after the r, then release immediately)
 /\  - slide into or out of (from/to "nowhere")
 s   - legato slide
 S   - shift slide
 - natural harmonic
[n]  - artificial harmonic
n(n) - tapped harmonic
 ~   - vibrato
 tr  - trill
 T   - tap
 TP  - trem. picking
 PM  - palm muting
\n/  - tremolo bar dip; n = amount to dip
 \n  - tremolo bar down
 n/  - tremolo bar up
/n\  - tremolo bar inverted dip
 =   - hold bend; also acts as connecting device for hammers/pulls
 <> - volume swell (louder/softer)
 x   - on rhythm slash represents muted slash
 o   - on rhythm slash represents single note slash

Misc Legend
-----------
 |  - bar
||  - double bar
||o - repeat start
o|| - repeat end
*|  - double bar (ending)
 :  - bar (freetime)
 $  - Segno
 &  - Coda
Tempo markers -  = BPM(8/16=s8/s16), where s8 = swing 8ths, s16 = swing 16ths

Suggest correction
Creating personal tab
Creating personal tab
You can edit any tab online and save it as your Personal.

You can edit, replace or remove any tab part or add personal notes – all changes will be seen only by you.

Personal tabs can be accessed anytime from any device, even offline.
Learn more »
Give kudos to tab author, rate the tab!
1 2 3 4 5
comments
print report bad tab
guest
You may want to rate the tab now too:
select rating
Wanna post a correction for this tab? Suggest correction