Oops, an error
Loading. Please wait.
We have an official Through The Fire And Flames tab made by UG professional guitarists. Check out the tab »
×
230,732 views 1,080 this week
30 commentsread comments
1 2 3 4 5
x 29
add to favorites
×
Save as Personal and add changes to this tab that will be seen only by you. Learn more ›
×
You can save this tab as Personal to edit and correct it or add notes. All changes will be seen only by you. Learn more »
launch autoscroll
font size
0
reset
how to read this tab
guitar tuner
backing track
0:00
0:00
edit
Autoscroll
slow
fast
+/-
esc
set tempo
stop
Author
#----------------------------------PLEASE NOTE---------------------------------#
#This file is the author's own work and represents their interpretation of the #
#song. You may only use this file for private study, scholarship, or research. #
#------------------------------------------------------------------------------##

                         THROUGH THE FIRE AND THE FLAMES
                           As recorded by Dragonforce
                      (From the 2006 Album INHUMAN RAMPAGE)

Words and Music by Dragonforce
Arranged by Dragonforce
Transcribed by Rhythman

          C5                   Bb5                  G#5                  G5
      x 3 5 5 x x          x 1 3 3 x x          4 6 6 x x x          3 5 5 x x x

          F5                   Eb5                 Bb5VI
      1 3 3 x x x          x 6 8 8 x x          6 8 8 x x x

Gtr I (E A D G B E) - 'Rhythm (arranged for 2 guitars)'
Gtr II (E A D G B E) - 'Lead 1'
Gtr III (E A D G B E) - 'Lead 2'
Gtr IV (E A D G B E) - 'Acoustic + Keyboard'

   Intro
    Fast Rock Q=200
    C5
   4/4
    Gtr I
    Q       H.                         W
||-----------------------------------|---------------------------------|
||o----------------------------------|---------------------------------|
||--5--------------------------------|---------------------------------|
||--5--------------------------------|---------------------------------|
||o-3--------------------------------|---------------------------------|
||-----------------------------------|---------------------------------|
|
|   Gtr IV
|   S S S S S  S S S S S S S S S S S   S S S S S S S S S S S S S S S S
||-----------------------------------|-6-------------------------------|
||o--------------------------6-------|-----8---9---6---8-------6-------|
||--5---7---8----5---7---8-------7---|---------------------8-------7---|
||----5---5----5---5---5---5---5---5-|---5---5---5---5---5---5---5---5-|
||o----------------------------------|---------------------------------|
||-----------------------------------|---------------------------------|


  Q       H.                         W
|----------------------------------|------------------------------------|
|----------------------------------|------------------------------------|
|-5--------------------------------|------------------------------------|
|-5--------------------------------|------------------------------------|
|-3--------------------------------|------------------------------------|
|----------------------------------|------------------------------------|
|
| S S S S S  S S S S S S S S S S S   S S S S S S S S S S S S S S S S
|----------------------------------|-6----------------------------------|
|--------------------------6-------|-----8---9---6---8-------6----------|
|-5---7---8----5---7---8-------7---|---------------------8-------7------|
|---5---5----5---5---5---5---5---5-|---5---5---5---5---5---5---5---5----|
|----------------------------------|------------------------------------|
|----------------------------------|------------------------------------|


  1.
  Bb5
  W                                 +W
|---------------------------------|-----------------------------------|
|---------------------------------|-----------------------------------|
|-3-------------------------------|-(3)-------------------------------|
|-3-------------------------------|-(3)-------------------------------|
|-1-------------------------------|-(1)-------------------------------|
|---------------------------------|-----------------------------------|
|
| S S S S S S S S S S S S S S S S    S  S S S S S S S S S S S S S S S
|---------------------------------|--6--------------------------------|
|-------------------------6-------|-------8---9---6---8-------6-------|
|-5---7---8---5---7---8-------7---|-----------------------8-------7---|
|---5---5---5---5---5---5---5---5-|-----5---5---5---5---5---5---5---5-|
|---------------------------------|-----------------------------------|
|---------------------------------|-----------------------------------|


  Ab5                                G5
  Q       H.                         W
|----------------------------------|------------------------------------||
|----------------------------------|-----------------------------------o||
|----------------------------------|------------------------------------||
|-6--------------------------------|-5----------------------------------||
|-6--------------------------------|-5---------------------------------o||
|-4--------------------------------|-3----------------------------------||
|
| S S S S S  S S S S S S S S S S S   S S S S S S S S S S S S S S S S
|----------------------------------|-6----------------------------------||
|--------------------------6-------|-----8---9---6---8-------6---------o||
|-5---7---8----5---7---8-------7---|---------------------8-------7------||
|---5---5----5---5---5---5---5---5-|---5---5---5---5---5---5---5---5----||
|----------------------------------|-----------------------------------o||
|----------------------------------|------------------------------------||


  2.
  Ab5
  W                                 +W
|---------------------------------|-----------------------------------|
|---------------------------------|-----------------------------------|
|---------------------------------|-----------------------------------|
|-6-------------------------------|-(6)-------------------------------|
|-6-------------------------------|-(6)-------------------------------|
|-4-------------------------------|-(4)-------------------------------|
|
| S S S S S S S S S S S S S S S S    S  S S S S S S S S S S S S S S S
|---------------------------------|--6--------------------------------|
|-------------------------6-------|-------8---9---6---8-------6-------|
|-5---7---8---5---7---8-------7---|-----------------------8-------7---|
|---5---5---5---5---5---5---5---5-|-----5---5---5---5---5---5---5---5-|
|---------------------------------|-----------------------------------|
|---------------------------------|-----------------------------------|


  G5
  Q       H.                         E.     S E.     S E.    S Q
|----------------------------------|-------------------------------------||
|----------------------------------|-------------------------------------||
|----------------------------------|-------------------------------------||
|-5--------------------------------|-5--------5--------5-----------------||
|-5--------------------------------|-5--------5--------5-----------------||
|-3--------------------------------|-3--------3--------3-----------------||
|
| S S S S S  S S S S S S S S S S S   S  S S S S  S S S S S S S S S S S
|----------------------------------|-6-----------------6h8p6-------------||
|--------------------------6-------|----8------------8-------8-------8---||
|-5---7---8----5---7---8-------7---|------8-5----5h8-----------8-5-8-----||
|---5---5----5---5---5---5---5---5-|----------5--------------------------||
|----------------------------------|-------------------------------------||
|----------------------------------|-------------------------------------||


  C5
  Gtr II
   S  S  S  S S S  S  S  S  S S S  S  S S S
|-11-11-11-11-8-8-11-11-11-11-8-8-11-11-8-8-|
|-------------------------------------------|
|-------------------------------------------|
|-------------------------------------------|
|-------------------------------------------|
|-------------------------------------------|
|
| Gtr III
|  S  S  S  S S S  S  S  S  S S S  S  S S S
|-------------------------------------------|
|-13-13-13-13-8-8-13-13-13-13-8-8-13-13-8-8-|
|-------------------------------------------|
|-------------------------------------------|
|-------------------------------------------|
|-------------------------------------------|
|
| Gtr I
|        PM----------------------------------
|  E     S  S S S  S  S  S  S S S  S  S S S
|-------------------------------------------|
|-------------------------------------------|
|-------------------------------------------|
|--5----------------------------------------|
|--3-----3--3-3-3--3--3--3--3-3-3--3--3-3-3-|
|-------------------------------------------|


   S  S  S  S S S  S  S  S  S S S  S  S S S
|-11-11-11-11-8-8-11-11-11-11-8-8-11-11-8-8--|
|--------------------------------------------|
|--------------------------------------------|
|--------------------------------------------|
|--------------------------------------------|
|--------------------------------------------|
|
|  S  S  S  S S S  S  S  S  S S S  S  S S S
|--------------------------------------------|
|-13-13-13-13-8-8-13-13-13-13-8-8-13-13-8-8--|
|--------------------------------------------|
|--------------------------------------------|
|--------------------------------------------|
|--------------------------------------------|
|
|-----------------------------------------|
|  S  S  S  S S S  S  S  S  S S S  S  S S S
|--------------------------------------------|
|--------------------------------------------|
|--------------------------------------------|
|--------------------------------------------|
|--3--3--3--3-3-3--3--3--3--3-3-3--3--3-3-3--|
|--------------------------------------------|


  Ab5
   S  S  S  S  S  S  S  S  S  S  S  S  S  S  S  S
|-15-15-15-15-11-11-15-15-15-15-11-11-15-15-11-11-|
|-------------------------------------------------|
|-------------------------------------------------|
|-------------------------------------------------|
|-------------------------------------------------|
|-------------------------------------------------|
|
|  S  S  S  S  S  S  S  S  S  S  S  S  S  S  S  S
|-------------------------------------------------|
|-16-16-16-16-13-13-16-16-16-16-13-13-16-16-13-13-|
|-------------------------------------------------|
|-------------------------------------------------|
|-------------------------------------------------|
|-------------------------------------------------|
|
|        PM----------------------------------------
|  E     S  S  S  S  S  S  S  S  S  S  S  S  S  S
|-------------------------------------------------|
|-------------------------------------------------|
|-------------------------------------------------|
|-------------------------------------------------|
|--6----------------------------------------------|
|--4-----4--4--4--4--4--4--4--4--4--4--4--4--4--4-|


   S  S  S  S  S  S  S  S  S  S  S  S  S  S  S  S
|-15-15-15-15-11-11-15-15-15-15-11-11-15-15-11-11--|
|--------------------------------------------------|
|--------------------------------------------------|
|--------------------------------------------------|
|--------------------------------------------------|
|--------------------------------------------------|
|
|  S  S  S  S  S  S  S  S  S  S  S  S  S  S  S  S
|--------------------------------------------------|
|-16-16-16-16-13-13-16-16-16-16-13-13-16-16-13-13--|
|--------------------------------------------------|
|--------------------------------------------------|
|--------------------------------------------------|
|--------------------------------------------------|
|
|----------------------------------------------|
|  S  S  S  S  S  S  S  S  S  S  S  S  S  S  S  S
|--------------------------------------------------|
|--------------------------------------------------|
|--------------------------------------------------|
|--------------------------------------------------|
|--------------------------------------------------|
|--4--4--4--4--4--4--4--4--4--4--4--4--4--4--4--4--|


  F5
   S  S  S  S S S  S  S  S  S S S  S  S S S
|-13-13-13-13-8-8-13-13-13-13-8-8-13-13-8-8-|
|-------------------------------------------|
|-------------------------------------------|
|-------------------------------------------|
|-------------------------------------------|
|-------------------------------------------|
|
|  S  S  S  S S S  S  S  S  S S S  S  S S S
|-------------------------------------------|
|-13-13-13-13-9-9-13-13-13-13-9-9-13-13-9-9-|
|-------------------------------------------|
|-------------------------------------------|
|-------------------------------------------|
|-------------------------------------------|
|
|        PM----------------------------------
|  E     S  S S S  S  S  S  S S S  S  S S S
|-------------------------------------------|
|-------------------------------------------|
|-------------------------------------------|
|-------------------------------------------|
|--3----------------------------------------|
|--1-----1--1-1-1--1--1--1--1-1-1--1--1-1-1-|


   S  S  S  S S S  S  S  S  S S S  S  S S S
|-13-13-13-13-8-8-13-13-13-13-8-8-13-13-8-8--|
|--------------------------------------------|
|--------------------------------------------|
|--------------------------------------------|
|--------------------------------------------|
|--------------------------------------------|
|
|  S  S  S  S S S  S  S  S  S S S  S  S S S
|--------------------------------------------|
|-13-13-13-13-9-9-13-13-13-13-9-9-13-13-9-9--|
|--------------------------------------------|
|--------------------------------------------|
|--------------------------------------------|
|--------------------------------------------|
|
|-----------------------------------------|
|  S  S  S  S S S  S  S  S  S S S  S  S S S
|--------------------------------------------|
|--------------------------------------------|
|--------------------------------------------|
|--------------------------------------------|
|--------------------------------------------|
|--1--1--1--1-1-1--1--1--1--1-1-1--1--1-1-1--|


  Ab5
   S  S  S  S S S  S  S  S  S S S  S  S S S
|-11-11-11-11-8-8-11-11-11-11-8-8-11-11-8-8-|
|-------------------------------------------|
|-------------------------------------------|
|-------------------------------------------|
|-------------------------------------------|
|-------------------------------------------|
|
|  S  S  S  S S S  S  S  S  S S S  S  S S S
|-------------------------------------------|
|-13-13-13-13-8-8-13-13-13-13-8-8-13-13-8-8-|
|-------------------------------------------|
|-------------------------------------------|
|-------------------------------------------|
|-------------------------------------------|
|
|        PM----------------------------------
|  E     S  S S S  S  S  S  S S S  S  S S S
|-------------------------------------------|
|-------------------------------------------|
|-------------------------------------------|
|-------------------------------------------|
|--6----------------------------------------|
|--4-----4--4-4-4--4--4--4--4-4-4--4--4-4-4-|


                                       ~~~
  S  S  S  S  S  S  S  S   E     E     Q
|-8-10-11-13-10-11-13-15-/11---/13---/15--------||
|-----------------------------------------------||
|-----------------------------------------------||
|-----------------------------------------------||
|-----------------------------------------------||
|-----------------------------------------------||
|
|                                      ~~~
| S  S  S  S  S  S  S  S   E     E     Q
|-----------------------------------------------||
|-8-11-13-15-11-13-15-16-/13---/15---/16--------||
|-----------------------------------------------||
|-----------------------------------------------||
|-----------------------------------------------||
|-----------------------------------------------||
|
|--------------------------------------------|
| S  S  S  S  S  S  S  S   S S   S S   S S S S
|-----------------------------------------------||
|-----------------------------------------------||
|-----------------------------------------------||
|-----------------------------------------------||
|-----------------------------------------------||
|-4--4--4--4--4--4--4--4---4-4---4-4---4-4-4-4--||


  C5
   S  S  S  S S S  S  S  S  S S S  S  S S S
|-11-11-11-11-8-8-11-11-11-11-8-8-11-11-8-8-|
|-------------------------------------------|
|-------------------------------------------|
|-------------------------------------------|
|-------------------------------------------|
|-------------------------------------------|
|
|  S  S  S  S S S  S  S  S  S S S  S  S S S
|-------------------------------------------|
|-13-13-13-13-8-8-13-13-13-13-8-8-13-13-8-8-|
|-------------------------------------------|
|-------------------------------------------|
|-------------------------------------------|
|-------------------------------------------|
|
|        PM----------------------------------
|  E     S  S S S  S  S  S  S S S  S  S S S
|-------------------------------------------|
|-------------------------------------------|
|-------------------------------------------|
|--5----------------------------------------|
|--3-----3--3-3-3--3--3--3--3-3-3--3--3-3-3-|
|-------------------------------------------|


   S  S  S  S S S  S  S  S  S S S  S  S S S
|-11-11-11-11-8-8-11-11-11-11-8-8-11-11-8-8--|
|--------------------------------------------|
|--------------------------------------------|
|--------------------------------------------|
|--------------------------------------------|
|--------------------------------------------|
|
|  S  S  S  S S S  S  S  S  S S S  S  S S S
|--------------------------------------------|
|-13-13-13-13-8-8-13-13-13-13-8-8-13-13-8-8--|
|--------------------------------------------|
|--------------------------------------------|
|--------------------------------------------|
|--------------------------------------------|
|
|-----------------------------------------|
|  S  S  S  S S S  S  S  S  S S S  S  S S S
|--------------------------------------------|
|--------------------------------------------|
|--------------------------------------------|
|--------------------------------------------|
|--3--3--3--3-3-3--3--3--3--3-3-3--3--3-3-3--|
|--------------------------------------------|


  Ab5
   S  S  S  S  S  S  S  S  S  S  S  S  S  S  S  S
|-15-15-15-15-11-11-15-15-15-15-11-11-15-15-11-11-|
|-------------------------------------------------|
|-------------------------------------------------|
|-------------------------------------------------|
|-------------------------------------------------|
|-------------------------------------------------|
|
|  S  S  S  S  S  S  S  S  S  S  S  S  S  S  S  S
|-------------------------------------------------|
|-16-16-16-16-13-13-16-16-16-16-13-13-16-16-13-13-|
|-------------------------------------------------|
|-------------------------------------------------|
|-------------------------------------------------|
|-------------------------------------------------|
|
|        PM----------------------------------------
|  E     S  S  S  S  S  S  S  S  S  S  S  S  S  S
|-------------------------------------------------|
|-------------------------------------------------|
|-------------------------------------------------|
|-------------------------------------------------|
|--6----------------------------------------------|
|--4-----4--4--4--4--4--4--4--4--4--4--4--4--4--4-|


   S  S  S  S  S  S  S  S  S  S  S  S  S  S  S  S
|-15-15-15-15-11-11-15-15-15-15-11-11-15-15-11-11--|
|--------------------------------------------------|
|--------------------------------------------------|
|--------------------------------------------------|
|--------------------------------------------------|
|--------------------------------------------------|
|
|  S  S  S  S  S  S  S  S  S  S  S  S  S  S  S  S
|--------------------------------------------------|
|-16-16-16-16-13-13-16-16-16-16-13-13-16-16-13-13--|
|--------------------------------------------------|
|--------------------------------------------------|
|--------------------------------------------------|
|--------------------------------------------------|
|
|----------------------------------------------|
|  S  S  S  S  S  S  S  S  S  S  S  S  S  S  S  S
|--------------------------------------------------|
|--------------------------------------------------|
|--------------------------------------------------|
|--------------------------------------------------|
|--------------------------------------------------|
|--4--4--4--4--4--4--4--4--4--4--4--4--4--4--4--4--|


  F5
   S  S  S  S S S  S  S  S  S S S  S  S S S
|-13-13-13-13-8-8-13-13-13-13-8-8-13-13-8-8-|
|-------------------------------------------|
|-------------------------------------------|
|-------------------------------------------|
|-------------------------------------------|
|-------------------------------------------|
|
|  S  S  S  S S S  S  S  S  S S S  S  S S S
|-------------------------------------------|
|-13-13-13-13-9-9-13-13-13-13-9-9-13-13-9-9-|
|-------------------------------------------|
|-------------------------------------------|
|-------------------------------------------|
|-------------------------------------------|
|
|        PM----------------------------------
|  E     S  S S S  S  S  S  S S S  S  S S S
|-------------------------------------------|
|-------------------------------------------|
|-------------------------------------------|
|-------------------------------------------|
|--3----------------------------------------|
|--1-----1--1-1-1--1--1--1--1-1-1--1--1-1-1-|


   S  S  S  S S S  S  S  S  S S S  S  S S S
|-13-13-13-13-8-8-13-13-13-13-8-8-13-13-8-8--|
|--------------------------------------------|
|--------------------------------------------|
|--------------------------------------------|
|--------------------------------------------|
|--------------------------------------------|
|
|  S  S  S  S S S  S  S  S  S S S  S  S S S
|--------------------------------------------|
|-13-13-13-13-9-9-13-13-13-13-9-9-13-13-9-9--|
|--------------------------------------------|
|--------------------------------------------|
|--------------------------------------------|
|--------------------------------------------|
|
|-----------------------------------------|
|  S  S  S  S S S  S  S  S  S S S  S  S S S
|--------------------------------------------|
|--------------------------------------------|
|--------------------------------------------|
|--------------------------------------------|
|--------------------------------------------|
|--1--1--1--1-1-1--1--1--1--1-1-1--1--1-1-1--|


  Ab5
   S S  S  S S  S  S S   S S  S  S S  S  S S
|-11p8---------------8-/11p8---------------8-|
|-------9----8--9-11----------9----8--9-11---|
|----------8---------------------8-----------|
|--------------------------------------------|
|--------------------------------------------|
|--------------------------------------------|
|
|  S S  S  S S  S  S S   S S  S  S S  S  S S
|--------------------------------------------|
|-13p9---------------9-/13p9---------------9-|
|------10----8-10-12---------10----8-10-12---|
|---------10--------------------10-----------|
|--------------------------------------------|
|--------------------------------------------|
|
|       PM------------------------------------
|  E    S  S S  S  S S   S S  S  S S  S  S S
|--------------------------------------------|
|--------------------------------------------|
|--------------------------------------------|
|--------------------------------------------|
|--6-----------------------------------------|
|--4----4--4-4--4--4-4---4-4--4--4-4--4--4-4-|


           /1\   /1\   /1\   /1\   /1\   /1\   /1\   /1\
    E     +S    +S    +S    +S    +S    +S    +S    +S    +E     +Q
|-<16>---(16)--(16)--(16)--(16)--(16)--(16)--(16)--(16)--(16)---(16)--------||
|---------------------------------------------------------------------------||
|---------------------------------------------------------------------------||
|---------------------------------------------------------------------------||
|---------------------------------------------------------------------------||
|---------------------------------------------------------------------------||
|
|          /1\   /1\   /1\   /1\   /1\   /1\   /1\   /1\
|   E     +S    +S    +S    +S    +S    +S    +S    +S    +E     +Q
|---------------------------------------------------------------------------||
|--18----(18)--(18)--(18)--(18)--(18)--(18)--(18)--(18)--(18)---(18)--------||
|---------------------------------------------------------------------------||
|--15----(15)--(15)--(15)--(15)--(15)--(15)--(15)--(15)--(15)---(15)--------||
|---------------------------------------------------------------------------||
|---------------------------------------------------------------------------||
|
|------------------------------------------------------------------------|
|   S  S   S     S     S     S     S     S     S     S     S  S   S  S S S
|---------------------------------------------------------------------------||
|---------------------------------------------------------------------------||
|---------------------------------------------------------------------------||
|---------------------------------------------------------------------------||
|---------------------------------------------------------------------------||
|---4--4---4-----4-----4-----4-----4-----4-----4-----4-----4--4---4--4-4-4--||


 Verse
  C5                      Ab5
  Gtr I
  Q  H.        W          Q  H.        W
|------------|----------|------------|------|
|------------|----------|------------|------|
|-5----------|----------|------------|------|
|-5----------|----------|-6----------|------|
|-3----------|----------|-6----------|------|
|------------|----------|-4----------|------|


  Bb5                                        C5
  Q  H.        W          E. S E. S E Q.     Q  H.
|------------|----------|------------------|----------||
|------------|----------|------------------|----------||
|-3----------|----------|-3----3----3-3----|-5--------||
|-3----------|----------|-3----3----3-3----|-5--------||
|-1----------|----------|-1----1----1-1----|-3--------||
|------------|----------|------------------|----------||


    PM------------------------------------------|
  E S S S S S S S S S S S S S S   S S S S S S S S E E E E
|-------------------------------|-------------------------|
|-------------------------------|-------------------------|
|-------------------------------|---------------------3-5-|
|-5-----------------------------|-----------------5-5-3-5-|
|-3-3-3-3-3-3-3-3-3-3-3-3-3-3-3-|-3-3-3-3-3-3-3-3-3-3-----|
|-------------------------------|-------------------------|


  Ab5
    PM----------------------------------------------------------|
  E S S S S S S S S S S S S S S   S S S S S S S S S S S S S S S S
|-------------------------------|-----------------------------------|
|-------------------------------|-----------------------------------|
|-------------------------------|-----------------------------------|
|-------------------------------|-----------------------------------|
|-6-----------------------------|-----------------------------------|
|-4-4-4-4-4-4-4-4-4-4-4-4-4-4-4-|-4-4-4-4-4-4-4-4-4-4-4-4-4-4-4-4---|


  Bb5                                       C5
    PM----|              PM----|            PM|   PM--|   PM--|        PM--|
  E S S S S E +H       E S S S S E +H       E E E E E E E E   E Q  E E E E E
|--------------------|--------------------|-----------------|-----------------||
|--------------------|--------------------|-----------------|-----------------||
|-----------3-(3)----|-----------3-(3)----|-----------------|---5--3-5--------||
|-3---------3-(3)----|-3---------3-(3)----|-----5-------5---|---5--3-5--------||
|-1-1-1-1-1-1-(1)----|-1-1-1-1-1-1-(1)----|-3-3-3-3-3-3-3-3-|-3--------3-3-3--||
|--------------------|--------------------|-----------------|-----------------||


    PM----------------------------------------------------------|
  E S S S S S S S S S S S S S S   S S S S S S S S S S S S S S S S
|-------------------------------|---------------------------------|
|-------------------------------|---------------------------------|
|-------------------------------|---------------------------------|
|-5-----------------------------|---------------------------------|
|-3-3-3-3-3-3-3-3-3-3-3-3-3-3-3-|-3-3-3-3-3-3-3-3-3-3-3-3-3-3-3-3-|
|-------------------------------|---------------------------------|


  Ab5
    PM----------------------------------------------------------|
  E S S S S S S S S S S S S S S   S S S S S S S S S S S S S S S S
|-------------------------------|------------------------------------|
|-------------------------------|------------------------------------|
|-------------------------------|------------------------------------|
|-------------------------------|------------------------------------|
|-6-----------------------------|------------------------------------|
|-4-4-4-4-4-4-4-4-4-4-4-4-4-4-4-|-4-4-4-4-4-4-4-4-4-4-4-4-4-4-4-4----|


  Bb5
  PM------|   PM         PM------|     PM
  E S S E E E E  Q       E S S E E  E  E  Q
|----------------------|------------------------|
|----------------------|------------------------|
|----------------------|------------------------|
|-----------3---[3]b5--|-----------[3]---[3]b5--|
|-1-1-1-1-1---1--------|-1-1-1-1-1-----1--------|
|----------------------|------------------------|


  C5
    PM------------------------|
  E S S S S S S S S S S S S S S   E E. S E. S E. S E
|-------------------------------|----------------------||
|-------------------------------|----------------------||
|-------------------------------|---5----5----5----5---||
|-5-----------------------------|---5----5----5----5---||
|-3-3-3-3-3-3-3-3-3-3-3-3-3-3-3-|---3----3----3----3---||
|-------------------------------|----------------------||


 Pre-Chorus
  F5                                     C5
  Gtr II
                                          T     T     T     T     T     T     T     T
   E E E E E E E E    E  E E E E E E E    S  S  S  S  S  S  S  S  S  S  S  S  S  S  S  S
|------------------|-------------------|-11--8-11--8-11--8-11--8-11--8-11--8-11--8-11--8-|
|--9-----8-----6---|--9------8-----6---|-------------------------------------------------|
|----5-5---5-5---5-|-----5-5---5-5---5-|-------------------------------------------------|
|------------------|-------------------|-------------------------------------------------|
|------------------|-------------------|-------------------------------------------------|
|------------------|-------------------|-------------------------------------------------|
|
| Gtr III
|                                         T     T     T     T     T     T     T     T
|  E E E E E E E E    E  E E E E E E E    S  S  S  S  S  S  S  S  S  S  S  S  S  S  S  S
|------------------|-------------------|-15-11-15-11-15-11-15-11-15-11-15-11-15-11-15-11-|
|------------------|-------------------|-------------------------------------------------|
|-10-----8-----7---|-10------8-----7---|-------------------------------------------------|
|----6-6---6-6---6-|-----6-6---6-6---6-|-------------------------------------------------|
|------------------|-------------------|-------------------------------------------------|
|------------------|-------------------|-------------------------------------------------|
|
| Gtr I
|  W                 +W                   W
|------------------|-------------------|-------------------------------------------------|
|------------------|-------------------|-------------------------------------------------|
|------------------|-------------------|--5----------------------------------------------|
|--3---------------|-(3)---------------|--5----------------------------------------------|
|--3---------------|-(3)---------------|--3----------------------------------------------|
|--1---------------|-(1)---------------|-------------------------------------------------|


   T      T     T     T     T     T     T     T
   S   S  S  S  S  S  S  S  S  S  S  S  S  S  S  S
|-11---8-11--8-11--8-11--8-11--8-11--8-11--8-11--8---|
|----------------------------------------------------|
|----------------------------------------------------|
|----------------------------------------------------|
|----------------------------------------------------|
|----------------------------------------------------|
|
|  T      T     T     T     T     T     T     T
|  S   S  S  S  S  S  S  S  S  S  S  S  S  S  S  S
|-15--11-15-11-15-11-15-11-15-11-15-11-15-11-15-11---|
|----------------------------------------------------|
|----------------------------------------------------|
|----------------------------------------------------|
|----------------------------------------------------|
|----------------------------------------------------|
|
| +W
|----------------------------------------------------|
|----------------------------------------------------|
|-(5)------------------------------------------------|
|-(5)------------------------------------------------|
|-(3)------------------------------------------------|
|----------------------------------------------------|


  Ab5
   E  E  E E  E  E E  E    E   E  E E  E  E E  E
|-----------------------|------------------------|
|--9-------8-------6----|--9--------8-------6----|
|-----5--5----5--5----5-|------5--5----5--5----5-|
|-----------------------|------------------------|
|-----------------------|------------------------|
|-----------------------|------------------------|
|
|  E  E  E E  E  E E  E    E   E  E E  E  E E  E
|-----------------------|------------------------|
|-----------------------|------------------------|
|-10-------8-------7----|-10--------8-------7----|
|----10-10---10-10---10-|-----10-10---10-10---10-|
|-----------------------|------------------------|
|-----------------------|------------------------|
|
|  W                      +W
|-----------------------|------------------------|
|-----------------------|------------------------|
|-----------------------|------------------------|
|--6--------------------|-(6)--------------------|
|--6--------------------|-(6)--------------------|
|--4--------------------|-(4)--------------------|


  Bb5                            Ab5   Bb5
   W                E  E    E  E  E  E  E  E
|-----------------|-8S10S==11S13S15S16S18S23-||
|-11--------------|--------------------------||
|-----------------|--------------------------||
|-----------------|--------------------------||
|-----------------|--------------------------||
|-----------------|--------------------------||
|
|  W                E  E    E  E  E  E  E  E
|-----------------|--------------------------||
|-----------------|--------------------------||
|-10--------------|-5S=7S===8S10S12S13S15S20-||
|-----------------|--------------------------||
|-----------------|--------------------------||
|-----------------|--------------------------||
|
|     PM--------|
|  Q  E E E E E E   E.   S  Q     Q     Q
|-----------------|--------------------------||
|-----------------|--------------------------||
|--3--------------|-3-------3-----------3----||
|--3--------------|-3-------3-----6-----3----||
|--1--1-1-1-1-1-1-|-1-------1-----6-----1----||
|-----------------|---------------4----------||


 Chorus
  Gtr I
  W          W          W          S  S E S S E S S E  Q
|----------|----------|----------|-------------------------|
|----------|----------|----------|-------------------------|
|-8--------|----------|----------|-------------------------|
|-8--------|-8--------|-6--------|--------------------[5]--|
|-6--------|-8--------|-6--------|-6--6-6-6-6-6-6-6-6-[6]--|
|----------|-6--------|-4--------|-4--4-4-4-4-4-4-4-4------|
                                   H.                  Q


  C5                Bb5
    PM|   PM|   PM     PM|   PM|
  E E E E E E E E   E  E E E E E  Q
|-----------------|-------------------|
|-----------------|-------------------|
|-----------------|-------------------|
|-5-----5-----5---|-3------3-----[3]--|
|-3-3-3-3-3-3-3-3-|-1--1-1-1-1-1-[1]--|
|-----------------|-------------------|
                    H.            Q


  Ab5
    PM----------------------------------------------------------|
  E S S S S S S S S S S S S S S   S S S S S S S S S S S S S S S S
|-------------------------------|------------------------------------||
|-------------------------------|------------------------------------||
|-------------------------------|------------------------------------||
|-------------------------------|------------------------------------||
|-6-----------------------------|------------------------------------||
|-4-4-4-4-4-4-4-4-4-4-4-4-4-4-4-|-4-4-4-4-4-4-4-4-4-4-4-4-4-4-4-4----||


  C5         Ab5        C5                     Eb5
  Gtr II
  W          W          E  E  E E  E  E E  E    W
|----------|----------|----------------------|-------|
|----------|----------|-8-------6-------8----|-11----|
|----------|----------|----8--8----8--8----8-|-------|
|----------|----------|----------------------|-------|
|----------|----------|----------------------|-------|
|----------|----------|----------------------|-------|
|
| Gtr III
| W          W          E  E  E E  E  E E  E    W
|----------|----------|----------------------|-------|
|----------|----------|----------------------|-------|
|----------|----------|-8-------7-------8----|-12----|
|----------|----------|---10-10---10-10---10-|-------|
|----------|----------|----------------------|-------|
|----------|----------|----------------------|-------|
|
| Gtr I
|                          PM|     PM|     PM
| W          W          E  E  E E  E  E E  E    W
|----------|----------|----------------------|-------|
|----------|----------|----------------------|-------|
|-5--------|----------|----------------------|--8----|
|-5--------|-6--------|-5-------5-------5----|--8----|
|-3--------|-6--------|-3--3--3-3--3--3-3--3-|--6----|
|----------|-4--------|----------------------|-------|


  Ab5
  S S  S  S S S S S S S  S  S S S S S   S S  S  S S S S S S S  S  S S S S S
|-----------6-6-8-8-----------6-6-8-8-|-----------6-6-8-8-----------6-6-8-8-|
|-6-6--9--9---------6-6--9--9---------|-6-6--9--9---------6-6--9--9---------|
|-------------------------------------|-------------------------------------|
|-------------------------------------|-------------------------------------|
|-------------------------------------|-------------------------------------|
|-------------------------------------|-------------------------------------|
|
| S S  S  S S S S S S S  S  S S S S S   S S  S  S S S S S S S  S  S S S S S
|-------------------------------------|-------------------------------------|
|-----------8-8-9-9-----------8-8-9-9-|-----------8-8-9-9-----------8-8-9-9-|
|-5-5-10-10---------5-5-10-10---------|-5-5-10-10---------5-5-10-10---------|
|-------------------------------------|-------------------------------------|
|-------------------------------------|-------------------------------------|
|-------------------------------------|-------------------------------------|
|
|      PM-----------------------------------------------------------------|
| E    S  S S S S S S S  S  S S S S S   S S  S  S S S S S S S  S  S S S S S
|-------------------------------------|-------------------------------------|
|-------------------------------------|-------------------------------------|
|-------------------------------------|-------------------------------------|
|-------------------------------------|-------------------------------------|
|-6-----------------------------------|-------------------------------------|
|-4----4--4-4-4-4-4-4-4--4--4-4-4-4-4-|-4-4--4--4-4-4-4-4-4-4--4--4-4-4-4-4-|


  Bb5
  W                                 H..            +E
|-6-----------------------------|----------------------||
|-------------------------------|----------------------||
|-------------------------------|-[10]b15---------(10)-||
|-------------------------------|----------------------||
|-------------------------------|----------------------||
|-------------------------------|----------------------||
|
|                                   ~~~~~~~
| W                                 H..            +E
|-------------------------------|--16b22----------(16)-||
|-6-----------------------------|----------------------||
|-------------------------------|----------------------||
|-------------------------------|----------------------||
|-------------------------------|----------------------||
|-------------------------------|----------------------||
|
|   PM------------------------|
| E S S S S S S S S S S S S S S     Q      H.
|-------------------------------|----------------------||
|-------------------------------|----------------------||
|-------------------------------|---3------------------||
|-3-----------------------------|---3------------------||
|-1-1-1-1-1-1-1-1-1-1-1-1-1-1-1-|---1------------------||
|-------------------------------|----------------------||


 Guitar Solo
  C5
                             PM|
  E Q  E E E E E    E  Q   E E E  Q
|----------------|---------------[6]--|
|-8-8--6-8-6-----|--8--8-----6-8------|
|------------8-5-|---------8----------|
|----------------|--------------------|
|----------------|--------------------|
|----------------|--------------------|
|
|                            PM|
| E Q  E E E E E    E  Q   E E E  Q
|----------------|--------------------|
|----------------|---------------[8]--|
|-8-8--7-8-7-----|--8--8-----7-8------|
|------------8-5-|--------10----------|
|----------------|--------------------|
|----------------|--------------------|
|
| W                +W
|----------------|--------------------|
|----------------|--------------------|
|-5--------------|-(5)----------------|
|-5--------------|-(5)----------------|
|-3--------------|-(3)----------------|
|----------------|--------------------|


  Ab5                            Bb5
                                            ~~~~~~~~~~~
  E Q  S S S S  S  S  S  S S S    E  E  E   H      +E
|---------------------6--6-----|--6--8-10-[11]----(11)-|
|-8-8--6-6-8-8--9--9-------8-8-|-----------------------|
|------------------------------|-----------------------|
|------------------------------|-----------------------|
|------------------------------|-----------------------|
|------------------------------|-----------------------|
|
|                                           ~~~~~~~~~~~
| E Q  S S S S  S  S  S  S S S    E  E  E   H      +E
|------------------------------|-----------13-----(13)-|
|------------------------------|-------11--------------|
|-8-8--7-7-8-8-10-10-12-12-8-8-|-12-12-----------------|
|------------------------------|-----------------------|
|------------------------------|-----------------------|
|------------------------------|-----------------------|
|
| W                               W
|------------------------------|-----------------------|
|------------------------------|-----------------------|
|------------------------------|--3--------------------|
|-6----------------------------|--3--------------------|
|-6----------------------------|--1--------------------|
|-4----------------------------|-----------------------|


  C5
  E E E  Q   E E  E      E   E  E  E E   E  S  S  E
|-6------------6-11-|-/[15]-11-15-16---/18-16p15----|
|---8---------------|----------------------------16-|
|-----8-[8]--8------|-------------------------------|
|-------------------|-------------------------------|
|-------------------|-------------------------------|
|-------------------|-------------------------------|
|
| E E E  Q   E E  E      E   E  E  E E   E  S  S  E
|-------------------|-------------------------------|
|-8------------8-11-|-/[16]-11-16-18---/20-18p16----|
|---8---------------|----------------------------15-|
|-----8-[8]--8------|-------------------------------|
|-------------------|-------------------------------|
|-------------------|-------------------------------|
|
| W                     +W
|-------------------|-------------------------------|
|-------------------|-------------------------------|
|-5-----------------|---(5)-------------------------|
|-5-----------------|---(5)-------------------------|
|-3-----------------|---(3)-------------------------|
|-------------------|-------------------------------|


  Ab5                        Bb5
                              T     T     T     T     T     T     T
    E  E  E  E  E  E  E  E    S  S  S  S  S  S  S  S  S  S  S  S  S  S  E
|-/23-23s18S23-23-18-23s18-|-18-16-18-16-18-16-18-16-18-15-20-16-18-15s11-|
|--------------------------|----------------------------------------------|
|--------------------------|----------------------------------------------|
|--------------------------|----------------------------------------------|
|--------------------------|----------------------------------------------|
|--------------------------|----------------------------------------------|
|
|                             T     T     T     T     T     T     T
|   E  E  E  E  E  E  E  E    S  S  S  S  S  S  S  S  S  S  S  S  S  S  E
|-/18-18s15S18-18-15-18s15-|----------------------------------------------|
|--------------------------|-20-18-20-18-20-18-20-18-20-16-21-18-20-16s11-|
|--------------------------|----------------------------------------------|
|--------------------------|----------------------------------------------|
|--------------------------|----------------------------------------------|
|--------------------------|----------------------------------------------|
|
|   W                         W
|--------------------------|----------------------------------------------|
|--------------------------|----------------------------------------------|
|--------------------------|--3-------------------------------------------|
|---6----------------------|--3-------------------------------------------|
|---6----------------------|--1-------------------------------------------|
|---4----------------------|----------------------------------------------|


  C5
  E Q  S S S S S S S S S S    E  Q  E  E   E   Q
|--------------------------|----------------------|
|-8-8--6-6-8-8-6-6---------|--8--8--6-/8--/9-/11--|
|------------------8-8-5-5-|----------------------|
|--------------------------|----------------------|
|--------------------------|----------------------|
|--------------------------|----------------------|
|
| E Q  S S S S S S S S S S    E  Q  E  E   E   Q
|--------------------------|----------------------|
|--------------------------|----------------------|
|-8-8--7-7-8-8-7-7---------|--8--8--7-/8-/10-/12--|
|------------------8-8-5-5-|----------------------|
|--------------------------|----------------------|
|--------------------------|----------------------|
|
| W                          +W
|--------------------------|----------------------|
|--------------------------|----------------------|
|-5------------------------|-(5)------------------|
|-5------------------------|-(5)------------------|
|-3------------------------|-(3)------------------|
|--------------------------|----------------------|


  Ab5                                  Bb5
   T    T    T   T   T   T   T   T                ~~~~~~~~~~~
   S S  S S  S S S S S S S S S S S S    E  E  E   H      +E
|-11-6-11-6-11-6-8-4-8-4-8-4-6-4-6-4-|-/6--8-10-[11]----(11)--|
|------------------------------------|------------------------|
|------------------------------------|------------------------|
|------------------------------------|------------------------|
|------------------------------------|------------------------|
|------------------------------------|------------------------|
|
|  T    T    T   T   T   T   T   T                ~~~~~~~~~~~
|  S S  S S  S S S S S S S S S S S S    E  E  E   H      +E
|------------------------------------|-----------13-----(13)--|
|-11-8-11-8-11-8-9-4-9-4-9-4-8-4-8-4-|-------11---------------|
|------------------------------------|-12-12------------------|
|------------------------------------|------------------------|
|------------------------------------|------------------------|
|------------------------------------|------------------------|
|
|  W                                    W
|------------------------------------|------------------------|
|------------------------------------|------------------------|
|------------------------------------|--3---------------------|
|--6---------------------------------|--3---------------------|
|--6---------------------------------|--1---------------------|
|--4---------------------------------|------------------------|


  C5                                            Ab5
                                                 T     T     T     T     T     T     T   
  T
  E Q  S  S E  E E E    E  Q  S  S E  E   Q      S  S  S  S  S  S  S  S  S  S  S  S  S  S
 S  S
|-6-6-------6--------|--6--6-------6-11-[11]--|-23-18-23-18-23-18-23-16-23-18-23-16-23-18-23-18-|
|------8--9----9-8---|--------8--9------------|-------------------------------------------------|
|------------------8-|------------------------|-------------------------------------------------|
|--------------------|------------------------|-------------------------------------------------|
|--------------------|------------------------|-------------------------------------------------|
|--------------------|------------------------|-------------------------------------------------|
|
|                                                T     T     T     T     T     T     T   
  T
| E Q  S  S E  E E E    E  Q  S  S E  E   Q      S  S  S  S  S  S  S  S  S  S  S  S  S  S
 S  S
|--------------------|------------------------|-20-15-20-15-20-15-20-13-20-15-20-13-20-15-20-15-|
|-8-8-------8--------|--8--8-------8-11-[11]--|-------------------------------------------------|
|------8-10---10-8---|--------8-10------------|-------------------------------------------------|
|------------------8-|------------------------|-------------------------------------------------|
|--------------------|------------------------|-------------------------------------------------|
|--------------------|------------------------|-------------------------------------------------|
|
| W                    +W                        W
|--------------------|------------------------|-------------------------------------------------|
|--------------------|------------------------|-------------------------------------------------|
|-5------------------|-(5)--------------------|-------------------------------------------------|
|-5------------------|-(5)--------------------|--6----------------------------------------------|
|-3------------------|-(3)--------------------|--6----------------------------------------------|
|--------------------|------------------------|--4----------------------------------------------|


            Bb5  Ab5  G5   F5    C5
                                   ~~~~
    E  S  S   Q    E.   E.   E     Q.   E H
|-/16-16-16-/18--/16--/15--/10-|-[15]----------||
|------------------------------|---------------||
|------------------------------|---------------||
|------------------------------|---------------||
|------------------------------|---------------||
|------------------------------|---------------||
|
|                                  ~~~~
|   E  S  S   Q    E.   E.   E     Q.   E H
|------------------------------|---------------||
|-/18-18-18-/20--/18--/16--/11-|-[16]----------||
|------------------------------|---------------||
|------------------------------|---------------||
|------------------------------|---------------||
|------------------------------|---------------||
|
|   Q         Q    E.   E.   E     Q.   E H
|------------------------------|---------------||
|------------------------------|---------------||
|-------------3----------------|---5-----------||
|---6---------3----6----5----3-|---5-----------||
|---6---------1----6----5----3-|---3-----------||
|---4--------------4----3----1-|---------------||


 Verse
  N.C.       C5                                 Ab5
  Gtr I
                PM--------------------------|      PM--------|
  W          Q  E E E E E E   E E E E E E E E   Q  E E E E E E
|----------|----------------|-----------------|-----------------|
|----------|----------------|-----------------|-----------------|
|----------|-5--------------|-----------------|-----------------|
|----------|-5--------------|-----------------|-6---------------|
|----------|-3--3-3-3-3-3-3-|-3-3-3-3-3-3-3-3-|-6---------------|
|----------|----------------|-----------------|-4--4-4-4-4-4-4--|


                    Bb5                                C5
  PM------------|      PM--------------------------|
  E E E E E E E E   Q  E E E E E E   E E E E E E E E   Q  H.        Q  H.
|-----------------|----------------|-----------------|------------|----------||
|-----------------|----------------|-----------------|------------|----------||
|-----------------|-3--------------|-----------------|-5----------|-5--------||
|-----------------|-3--------------|-----------------|-5----------|-5--------||
|-----------------|-1--1-1-1-1-1-1-|-1-1-1-1-1-1-1-1-|-3----------|-3--------||
|-4-4-4-4-4-4-4-4-|----------------|-----------------|------------|----------||


    PM----------------------------------------------------------|
  E S S S S S S S S S S S S S S   S S S S S S S S S S S S S S S S
|-------------------------------|---------------------------------|
|-------------------------------|---------------------------------|
|-------------------------------|---------------------------------|
|-5-----------------------------|---------------------------------|
|-3-3-3-3-3-3-3-3-3-3-3-3-3-3-3-|-3-3-3-3-3-3-3-3-3-3-3-3-3-3-3-3-|
|-------------------------------|---------------------------------|


  Ab5
    PM----------------------------------------------------------|
  E S S S S S S S S S S S S S S   S S S S S S S S S S S S S S S S
|-------------------------------|------------------------------------|
|-------------------------------|------------------------------------|
|-------------------------------|------------------------------------|
|-------------------------------|------------------------------------|
|-6-----------------------------|------------------------------------|
|-4-4-4-4-4-4-4-4-4-4-4-4-4-4-4-|-4-4-4-4-4-4-4-4-4-4-4-4-4-4-4-4----|


  Bb5
    PM----|              PM----|
  E S S S S E +H       E S S S S E +H
|--------------------|--------------------|
|--------------------|--------------------|
|-----------3-(3)----|-----------3-(3)----|
|-3---------3-(3)----|-3---------3-(3)----|
|-1-1-1-1-1-1-(1)----|-1-1-1-1-1-1-(1)----|
|--------------------|--------------------|


  C5
  PM|   PM--|   PM--|        PM
  E E E E E E E E   E Q  E E E  Q
|-----------------|------------------||
|-----------------|------------------||
|-----------------|---5--3-5---[5]---||
|-----5-------5---|---5--3-5---------||
|-3-3-3-3-3-3-3-3-|-3--------3-------||
|-----------------|------------------||


 Pre-Chorus
  F5                                     C5
  Gtr II
                                          T     T     T     T     T     T     T     T
   E E E E E E E E    E  E E E E E E E    S  S  S  S  S  S  S  S  S  S  S  S  S  S  S  S
|------------------|-------------------|-11--8-11--8-11--8-11--8-11--8-11--8-11--8-11--8-|
|--9-----8-----6---|--9------8-----6---|-------------------------------------------------|
|----5-5---5-5---5-|-----5-5---5-5---5-|-------------------------------------------------|
|------------------|-------------------|-------------------------------------------------|
|------------------|-------------------|-------------------------------------------------|
|------------------|-------------------|-------------------------------------------------|
|
| Gtr III
|                                         T     T     T     T     T     T     T     T
|  E E E E E E E E    E  E E E E E E E    S  S  S  S  S  S  S  S  S  S  S  S  S  S  S  S
|------------------|-------------------|-15-11-15-11-15-11-15-11-15-11-15-11-15-11-15-11-|
|------------------|-------------------|-------------------------------------------------|
|-10-----8-----7---|-10------8-----7---|-------------------------------------------------|
|----6-6---6-6---6-|-----6-6---6-6---6-|-------------------------------------------------|
|------------------|-------------------|-------------------------------------------------|
|------------------|-------------------|-------------------------------------------------|
|
| Gtr I
|  W                 +W                   W
|------------------|-------------------|-------------------------------------------------|
|------------------|-------------------|-------------------------------------------------|
|------------------|-------------------|--5----------------------------------------------|
|--3---------------|-(3)---------------|--5----------------------------------------------|
|--3---------------|-(3)---------------|--3----------------------------------------------|
|--1---------------|-(1)---------------|-------------------------------------------------|


   T      T     T     T     T     T     T     T
   S   S  S  S  S  S  S  S  S  S  S  S  S  S  S  S
|-11---8-11--8-11--8-11--8-11--8-11--8-11--8-11--8---|
|----------------------------------------------------|
|----------------------------------------------------|
|----------------------------------------------------|
|----------------------------------------------------|
|----------------------------------------------------|
|
|  T      T     T     T     T     T     T     T
|  S   S  S  S  S  S  S  S  S  S  S  S  S  S  S  S
|-15--11-15-11-15-11-15-11-15-11-15-11-15-11-15-11---|
|----------------------------------------------------|
|----------------------------------------------------|
|----------------------------------------------------|
|----------------------------------------------------|
|----------------------------------------------------|
|
| +W
|----------------------------------------------------|
|----------------------------------------------------|
|-(5)------------------------------------------------|
|-(5)------------------------------------------------|
|-(3)------------------------------------------------|
|----------------------------------------------------|


  Ab5
   E  E  E E  E  E E  E    E   E  E E  E  E E  E
|-----------------------|------------------------|
|--9-------8-------6----|--9--------8-------6----|
|-----5--5----5--5----5-|------5--5----5--5----5-|
|-----------------------|------------------------|
|-----------------------|------------------------|
|-----------------------|------------------------|
|
|  E  E  E E  E  E E  E    E   E  E E  E  E E  E
|-----------------------|------------------------|
|-----------------------|------------------------|
|-10-------8-------7----|-10--------8-------7----|
|----10-10---10-10---10-|-----10-10---10-10---10-|
|-----------------------|------------------------|
|-----------------------|------------------------|
|
|  W                      +W
|-----------------------|------------------------|
|-----------------------|------------------------|
|-----------------------|------------------------|
|--6--------------------|-(6)--------------------|
|--6--------------------|-(6)--------------------|
|--4--------------------|-(4)--------------------|


  Bb5                       Ab5Bb5
   W                W
|-----------------|----------------||
|-11--------------|----------------||
|-----------------|----------------||
|-----------------|----------------||
|-----------------|----------------||
|-----------------|----------------||
|
|  W                W
|-----------------|----------------||
|-----------------|----------------||
|-10--------------|----------------||
|-----------------|----------------||
|-----------------|----------------||
|-----------------|----------------||
|
|     PM--------|
|  Q  E E E E E E   E. S Q  Q  Q
|-----------------|----------------||
|-----------------|----------------||
|--3--------------|-3----3-----3---||
|--3--------------|-3----3--6--3---||
|--1--1-1-1-1-1-1-|-1----1--6--1---||
|-----------------|---------4------||


 Chorus
  Eb5        Bb5        Ab5
  Gtr I
  W          W          W          S S E S S E S S E  Q
|----------|----------|----------|------------------------|
|----------|----------|----------|------------------------|
|-8--------|----------|----------|------------------------|
|-8--------|-8--------|-6--------|-------------------[5]--|
|-6--------|-8--------|-6--------|-6-6-6-6-6-6-6-6-6-[6]--|
|----------|-6--------|-4--------|-4-4-4-4-4-4-4-4-4------|


  C5                Bb5                 Ab5
    PM|   PM|   PM     PM|   PM|
  E E E E E E E E   E  E E E E E  Q     W          +W
|-----------------|-------------------|----------|--------|
|-----------------|-------------------|----------|--------|
|-----------------|-------------------|----------|--------|
|-5-----5-----5---|-3------3-----[3]--|-6--------|-(6)----|
|-3-3-3-3-3-3-3-3-|-1--1-1-1-1-1-[1]--|-6--------|-(6)----|
|-----------------|-------------------|-4--------|-(4)----|
                    H.            Q


  C5         Ab5        C5                     Eb5
  Gtr II
  W          W          E  E  E E  E  E E  E   W
|----------|----------|----------------------|------|
|----------|----------|-8-------6-------8----|------|
|----------|----------|----8--8----8--8----8-|------|
|----------|----------|----------------------|------|
|----------|----------|----------------------|------|
|----------|----------|----------------------|------|
|
| Gtr III
| W          W          E  E  E E  E  E E  E   W
|----------|----------|----------------------|------|
|----------|----------|----------------------|------|
|----------|----------|-8-------7-------8----|------|
|----------|----------|---10-10---10-10---10-|------|
|----------|----------|----------------------|------|
|----------|----------|----------------------|------|
|
| Gtr I
|                          PM|     PM|     PM
| W          W          E  E  E E  E  E E  E   W
|----------|----------|----------------------|------|
|----------|----------|----------------------|------|
|-5--------|----------|----------------------|-8----|
|-5--------|-6--------|-5-------5-------5----|-8----|
|-3--------|-6--------|-3--3--3-3--3--3-3--3-|-6----|
|----------|-4--------|----------------------|------|


  Ab5
  S S  S  S S S S S S S  S  S S S S S   S S  S  S S S S S S S  S  S S S S S
|-----------6-6-8-8-----------6-6-8-8-|-----------6-6-8-8-----------6-6-8-8-|
|-6-6--9--9---------6-6--9--9---------|-6-6--9--9---------6-6--9--9---------|
|-------------------------------------|-------------------------------------|
|-------------------------------------|-------------------------------------|
|-------------------------------------|-------------------------------------|
|-------------------------------------|-------------------------------------|
|
| S S  S  S S S S S S S  S  S S S S S   S S  S  S S S S S S S  S  S S S S S
|-------------------------------------|-------------------------------------|
|-----------8-8-9-9-----------8-8-9-9-|-----------8-8-9-9-----------8-8-9-9-|
|-5-5-10-10---------5-5-10-10---------|-5-5-10-10---------5-5-10-10---------|
|-------------------------------------|-------------------------------------|
|-------------------------------------|-------------------------------------|
|-------------------------------------|-------------------------------------|
|
|      PM-----------------------------------------------------------------|
| E    S  S S S S S S S  S  S S S S S   S S  S  S S S S S S S  S  S S S S S
|-------------------------------------|-------------------------------------|
|-------------------------------------|-------------------------------------|
|-------------------------------------|-------------------------------------|
|-------------------------------------|-------------------------------------|
|-6-----------------------------------|-------------------------------------|
|-4----4--4-4-4-4-4-4-4--4--4-4-4-4-4-|-4-4--4--4-4-4-4-4-4-4--4--4-4-4-4-4-|


  Bb5
  W                                W
|-6-----------------------------|--------------------||
|-------------------------------|--------------------||
|-------------------------------|--------------------||
|-------------------------------|--------------------||
|-------------------------------|--------------------||
|-------------------------------|--------------------||
|
|                                  ~~~~~
| W                                H..           +E
|-------------------------------|-16b22---------(16)-||
|-6-----------------------------|--------------------||
|-------------------------------|--------------------||
|-------------------------------|--------------------||
|-------------------------------|--------------------||
|-------------------------------|--------------------||
|
|   PM------------------------|
| E S S S S S S S S S S S S S S    Q     H.
|-------------------------------|--------------------||
|-------------------------------|--------------------||
|-------------------------------|--3-----------------||
|-3-----------------------------|--3-----------------||
|-1-1-1-1-1-1-1-1-1-1-1-1-1-1-1-|--1-----------------||
|-------------------------------|--------------------||


 Pre-Solo
  Ab5                     C5
  Gtr I
  W          +W           W          +W
|----------|------------|----------|--------|
|----------|------------|----------|--------|
|----------|------------|-5--------|-(5)----|
|-6--------|-(6)--------|-5--------|-(5)----|
|-6--------|-(6)--------|-3--------|-(3)----|
|-4--------|-(4)--------|----------|--------|


  Bb5
    PM---------------------------
  E S S S S S S S S S S S S S S
|-------------------------------|
|-------------------------------|
|-------------------------------|
|-3-----------------------------|
|-1-1-1-1-1-1-1-1-1-1-1-1-1-1-1-|
|-------------------------------|


                                    G5
 -------------------------------|
  S S S S S S S S S S S S S S S S   W          +W
|---------------------------------|----------|--------|
|---------------------------------|----------|--------|
|---------------------------------|----------|--------|
|---------------------------------|-5--------|-(5)----|
|-1-1-1-1-1-1-1-1-1-1-1-1-1-1-1-1-|-5--------|-(5)----|
|---------------------------------|-3--------|-(3)----|


  Ab5                     C5                      Bb5
  W          +W           W          +W           W          Q  H.
|----------|------------|----------|------------|----------|----------||
|----------|------------|----------|------------|----------|----------||
|----------|------------|-5--------|-(5)--------|-3--------|-3--------||
|-6--------|-(6)--------|-5--------|-(5)--------|-3--------|-3--------||
|-6--------|-(6)--------|-3--------|-(3)--------|-1--------|-1--------||
|-4--------|-(4)--------|----------|------------|----------|----------||


 Guitar Solo
  C5
  Gtr II
                             PM|
  E Q  E E E E E    E  Q   E E E  Q
|----------------|---------------[6]--|
|-8-8--6-8-6-----|--8--8-----6-8------|
|------------8-5-|---------8----------|
|----------------|--------------------|
|----------------|--------------------|
|----------------|--------------------|
|
| Gtr III
|                            PM|
| E Q  E E E E E    E  Q   E E E  Q
|----------------|--------------------|
|----------------|---------------[8]--|
|-8-8--7-8-7-----|--8--8-----7-8------|
|------------8-5-|--------10----------|
|----------------|--------------------|
|----------------|--------------------|
|
| Gtr I
| W                +W
|----------------|--------------------|
|----------------|--------------------|
|-5--------------|-(5)----------------|
|-5--------------|-(5)----------------|
|-3--------------|-(3)----------------|
|----------------|--------------------|


  Ab5                         Bb5
   E  E  +E   E  E  E  E  E    E  E  E  E  +H
|-11-11-(11)-10-11-13-15-11-|-15-13-11-13-(13)----|
|---------------------------|---------------------|
|---------------------------|---------------------|
|---------------------------|---------------------|
|---------------------------|---------------------|
|---------------------------|---------------------|
|
|  E  E  +E   E  E  E  E  E    E  E  E  E  +H
|---------------------------|---------------------|
|---------------------------|---------------------|
|--8--8--(8)--7--8-10-12--8-|-12-10--8-10-(10)----|
|---------------------------|---------------------|
|---------------------------|---------------------|
|---------------------------|---------------------|
|
|  W                           W
|---------------------------|---------------------|
|---------------------------|---------------------|
|---------------------------|--3------------------|
|--6------------------------|--3------------------|
|--6------------------------|--1------------------|
|--4------------------------|---------------------|


  C5
   E  E E  Q   E E  E      E   E  E  E E   E  S  S  E
|-[6]------------6-11-|-/[15]-11-15-16---/18-16p15----|
|-----8---------------|----------------------------16-|
|-------8-[8]--8------|-------------------------------|
|---------------------|-------------------------------|
|---------------------|-------------------------------|
|---------------------|-------------------------------|
|
|  E  E E  Q   E E  E      E   E  E  E E   E  S  S  E
|---------------------|-------------------------------|
|--8-------------8-11-|-/[16]-11-16-18---/20-18p16----|
|-----8---------------|----------------------------15-|
|-------8-[8]--8------|-------------------------------|
|---------------------|-------------------------------|
|---------------------|-------------------------------|
|
|  W                      +W
|---------------------|-------------------------------|
|---------------------|-------------------------------|
|--5------------------|---(5)-------------------------|
|--5------------------|---(5)-------------------------|
|--3------------------|---(3)-------------------------|
|---------------------|-------------------------------|


  Ab5                    Bb5
   E  E E  E  E E  E E   E E  E  E +H
|-11-11-6-11-11-6------|-6----------------|
|------------------9-8-|---8-----6-(6)----|
|----------------------|-----[8]----------|
|----------------------|------------------|
|----------------------|------------------|
|----------------------|------------------|
|
|  E  E E  E  E E  E E   E E  E  E +H
|----------------------|------------------|
|-11-11-8-11-11-8------|-8----------------|
|-----------------10-8-|---8-----7-(7)----|
|----------------------|-----[8]----------|
|----------------------|------------------|
|----------------------|------------------|
|
|  W                     W
|----------------------|------------------|
|----------------------|------------------|
|----------------------|-3----------------|
|--6-------------------|-3----------------|
|--6-------------------|-1----------------|
|--4-------------------|------------------|


  C5
                                     ~~~
  E E E E E E  E E    E  E E E E  E  Q
|------------------|----------------[6]--|
|---6-8-6-8-6------|-----6-8-6-8--9------|
|--------------8-5-|---------------------|
|------------------|---------------------|
|------------------|---------------------|
|------------------|---------------------|
|
| E E E E E E  E E    E  E E E E  E  Q
|------------------|---------------------|
|------------------|----------------[8]--|
|---7-8-7-8-7------|-----7-8-7-8-10------|
|-------------10-5-|---------------------|
|------------------|---------------------|
|------------------|---------------------|
|
| W                  +W
|------------------|---------------------|
|------------------|---------------------|
|-5----------------|-(5)-----------------|
|-5----------------|-(5)-----------------|
|-3----------------|-(3)-----------------|
|------------------|---------------------|


  Ab5                                          Bb5
   T    T    T    T     T     T     T    T                 ~~~~~~~~~~~
   S S  S S  S S  S  S  S  S  S  S  S S  S S     E  E  E   H      +E
|-11-6-11-6-11-6-----------------------------|--/6--8-10-[11]----(11)-|
|----------------13--9-13--9-13--9-11-8-11-8-|------------------------|
|--------------------------------------------|------------------------|
|--------------------------------------------|------------------------|
|--------------------------------------------|------------------------|
|--------------------------------------------|------------------------|
|
|  T    T    T    T     T     T     T    T                 ~~~~
|  S S  S S  S S  S  S  S  S  S  S  S S  S S     E  E  E   H      +E
|--------------------------------------------|------------13-----(13)-|
|-11-8-11-8-11-8-----------------------------|--------11--------------|
|----------------13-10-13-10-13-10-12-8-12-8-|-/12-12-----------------|
|--------------------------------------------|------------------------|
|--------------------------------------------|------------------------|
|--------------------------------------------|------------------------|
|
|  W                                             W
|--------------------------------------------|------------------------|
|--------------------------------------------|------------------------|
|--------------------------------------------|---3--------------------|
|--6-----------------------------------------|---3--------------------|
|--6-----------------------------------------|---1--------------------|
|--4-----------------------------------------|------------------------|


  C5
   E  E  +E   S  S  E  E  E  E    E   E  +E   S  S  E  E  Q
|-15-15-(15)-15-13-15-13-------|-15--15-(15)-15-13-13-15-20--|
|------------------------16-13-|-----------------------------|
|------------------------------|-----------------------------|
|------------------------------|-----------------------------|
|------------------------------|-----------------------------|
|------------------------------|-----------------------------|
|
|  E  E  +E   S  S  E  E  E  E    E   E  +E   S  S  E  E  Q
|------------------------------|-----------------------------|
|------------------------------|-------------------------13--|
|-12-12-(12)-12-10-12-10-------|-12--12-(12)-10-12-10-12-----|
|------------------------13-10-|-----------------------------|
|------------------------------|-----------------------------|
|------------------------------|-----------------------------|
|
|  W                             +W
|------------------------------|-----------------------------|
|------------------------------|-----------------------------|
|--5---------------------------|-(5)-------------------------|
|--5---------------------------|-(5)-------------------------|
|--3---------------------------|-(3)-------------------------|
|------------------------------|-----------------------------|


  Ab5                                                         Bb5  Ab5  G5   F5
   S  S  S  S  S  S  S  S  S  S  S  S  S  S  S  S     E  S  S   Q    E.   E.   E
|-18p15----15-16p13-15p11----11-15p11-13p10----10-|-/16-16-16-/18--/16--/15--/10--||
|-------16----------------13----------------11----|-------------------------------||
|-------------------------------------------------|-------------------------------||
|-------------------------------------------------|-------------------------------||
|-------------------------------------------------|-------------------------------||
|-------------------------------------------------|-------------------------------||
|
|  S  S  S  S  S  S  S  S  S  S  S  S  S  S  S  S     E  S  S   Q    E.   E.   E
|-------------------------------------------------|-------------------------------||
|-20p16----16-18p15-16p13----13-16p13-15p11----11-|-/18-18-18-/20--/18--/16--/11--||
|-------17----------------13----------------12----|-------------------------------||
|-------------------------------------------------|-------------------------------||
|-------------------------------------------------|-------------------------------||
|-------------------------------------------------|-------------------------------||
|
|  W                                                  Q         Q    E.   E.   E
|-------------------------------------------------|-------------------------------||
|-------------------------------------------------|-------------------------------||
|-------------------------------------------------|-------------3-----------------||
|--6----------------------------------------------|---6---------3----6----5----3--||
|--6----------------------------------------------|---6---------1----6----5----3--||
|--4----------------------------------------------|---4--------------4----3----1--||


 Break
  C5                      Bb5
    ~~~~
    Q.   E H      W
|-[15]----------|------------||
|---------------|------------||
|---------------|------------||
|---------------|------------||
|---------------|------------||
|---------------|------------||
|
|   ~~~~
|   Q.   E H      W
|---------------|------------||
|-[16]----------|------------||
|---------------|------------||
|---------------|------------||
|---------------|------------||
|---------------|------------||
|
|   Q.   E H      H.      Q
|---------------|------------||
|---------------|------------||
|---5-----------|---------3--||
|---5-----------|---------3--||
|---3-----------|---------1--||
|---------------|------------||


 Interlude
  C5                         Bb5 C5                        Bb5
  H       H       H      H       H       H       H      H
|--------11----|-10------8-----|--------15----|-13-----11------|
|--------------|---------------|--------------|----------------|
|--------------|---------------|--------------|----------------|
|--------------|---------------|--------------|----------------|
|--------------|---------------|--------------|----------------|
|--------------|---------------|--------------|----------------|
|
| H       H       H      H       H       H       H      H
|--------------|---------------|---------6----|--4-------------|
|---------8----|--6------4-----|--------------|---------8------|
|--------------|---------------|--------------|----------------|
|--------------|---------------|--------------|----------------|
|--------------|---------------|--------------|----------------|
|--------------|---------------|--------------|----------------|
|
| Q  H.           H..        E   Q  H.           H.        Q
|--------------|---------------|--------------|----------------|
|--------------|---------------|--------------|----------------|
|-5------------|-------------3-|-5------------|------------3---|
|-5------------|-------------3-|-5------------|------------3---|
|-3------------|-------------1-|-3------------|------------1---|
|--------------|---------------|--------------|----------------|


  C5                               Ab5                 Bb5
  H       H       Q.    Q.    Q    W          +H.      Q
|--------11----|-10----11----10--|-8--------|-(8)----------||
|--------------|-----------------|----------|--------------||
|--------------|-----------------|----------|--------------||
|--------------|-----------------|----------|--------------||
|--------------|-----------------|----------|--------------||
|--------------|-----------------|----------|--------------||
|
| H       H       Q.    Q.    Q    W          +H.      Q
|--------------|-----------------|----------|--------------||
|---------8----|--6-----8-----6--|-4--------|-(4)----------||
|--------------|-----------------|----------|--------------||
|--------------|-----------------|----------|--------------||
|--------------|-----------------|----------|--------------||
|--------------|-----------------|----------|--------------||
|
| Q  H.           W                W          +H.      Q
|--------------|-----------------|----------|--------------||
|--------------|-----------------|----------|--------------||
|-5------------|-----------------|----------|----------3---||
|-5------------|-----------------|-6--------|-(6)------3---||
|-3------------|-----------------|-6--------|-(6)------1---||
|--------------|-----------------|-4--------|-(4)----------||


  C5                                                                                     
        Bb5
  Gtrs II, III
   H                        H                         H                         H
|--------------------------11----------------------|-10-------------------------8----------------------|
|---------------------------8----------------------|--6-------------------------4----------------------|
|--------------------------------------------------|---------------------------------------------------|
|--------------------------------------------------|---------------------------------------------------|
|--------------------------------------------------|---------------------------------------------------|
|--------------------------------------------------|---------------------------------------------------|
|  H                        H                         H                         H
|
| Gtr IV
|  s  s  s  s  s   s  s  s  s  s  s  s  s  s  s  s    s    s  s  s  s  s  s  s  s  s  s  s
 s  s  s  s
|--------------------------23-27-------------------|---------------------------23-27-------------------|
|-----------------------25-------28-25-------------|------------------------25-------28-25-------------|
|----------24-----22-24----------------24-20-------|------------24----22-24----------------24-20-------|
|----22-25----25-----------------------------22----|------22-25----25----------------------------22----|
|-22--------------------------------------------22-|-22---------------------------------------------22-|
|--------------------------------------------------|---------------------------------------------------|
|
| Gtr I
|  Q           H.                                     H..                                
         E
|--------------------------------------------------|---------------------------------------------------|
|--------------------------------------------------|---------------------------------------------------|
|--5-----------------------------------------------|----------------------------------------------3----|
|--5-----------------------------------------------|----------------------------------------------3----|
|--3-----------------------------------------------|----------------------------------------------1----|
|--------------------------------------------------|---------------------------------------------------|


  C5                                                                                     
 Bb5
   H                        H                         H                        H
|--------------------------15----------------------|-13-----------------------11------------------------|
|--------------------------11----------------------|--9------------------------8------------------------|
|--------------------------------------------------|----------------------------------------------------|
|--------------------------------------------------|----------------------------------------------------|
|--------------------------------------------------|----------------------------------------------------|
|--------------------------------------------------|----------------------------------------------------|
|  H                        H                         H                        H
|
|  s  s  s  s  s   s  s  s  s  s  s  s  s  s  s  s    s   s  s  s  s  s  s  s  s  s  s  s
 s  s  s  s
|--------------------------23-27-------------------|--------------------------23-27---------------------|
|-----------------------25-------28-25-------------|-----------------------25-------28-25---------------|
|----------24-----22-24----------------24-20-------|-----------24----22-24----------------24-20---------|
|----22-25----25-----------------------------22----|-----22-25----25----------------------------22------|
|-22--------------------------------------------22-|-22--------------------------------------------22---|
|--------------------------------------------------|----------------------------------------------------|
|
|  Q           H.                                     H.                                 
  Q
|--------------------------------------------------|----------------------------------------------------|
|--------------------------------------------------|----------------------------------------------------|
|--5-----------------------------------------------|---------------------------------------3------------|
|--5-----------------------------------------------|---------------------------------------3------------|
|--3-----------------------------------------------|---------------------------------------1------------|
|--------------------------------------------------|----------------------------------------------------|


  C5
   H                       H                         Q.                 Q.               
  Q
|-------------------------11----------------------|-10-----------------11-----------------10----------|
|--------------------------8----------------------|--6------------------8------------------6----------|
|-------------------------------------------------|---------------------------------------------------|
|-------------------------------------------------|---------------------------------------------------|
|-------------------------------------------------|---------------------------------------------------|
|-------------------------------------------------|---------------------------------------------------|
|  H                       H                         Q.                 Q.               
  Q
|
|  s  s  s  s  s  s  s  s  s  s  s  s  s  s  s  s    s   s  s  s  s  s  s   s  s  s  s  s
 s  s  s  s
|-------------------------23-27-------------------|---------------------------23-27-------------------|
|----------------------25-------28-25-------------|------------------------25-------28-25-------------|
|----------24----22-24----------------24-20-------|-----------24----22-24-----------------24-20-------|
|----22-25----25----------------------------22----|-----22-25----25-----------------------------22----|
|-22-------------------------------------------22-|-22---------------------------------------------22-|
|-------------------------------------------------|---------------------------------------------------|
|
|  W                                                 W
|-------------------------------------------------|---------------------------------------------------|
|-------------------------------------------------|---------------------------------------------------|
|--5----------------------------------------------|---------------------------------------------------|
|--5----------------------------------------------|---------------------------------------------------|
|--3----------------------------------------------|---------------------------------------------------|
|-------------------------------------------------|---------------------------------------------------|


  Ab5
   W                                                +H.      Q     W
|--8----------------------------------------------|-(8)---------|--------||
|--4----------------------------------------------|-(4)---------|--------||
|-------------------------------------------------|-------------|--------||
|-------------------------------------------------|-------------|--------||
|-------------------------------------------------|-------------|--------||
|-------------------------------------------------|-------------|--------||
|  W                                                +H.      Q
|
|  s  s  s  s  s  s  s  s  s  s  s  s  s  s  s  s    W             W
|-------------------------23-27-------------------|-------------|--------||
|----------------------25-------28-25-------------|-------------|--------||
|----------24----22-24----------------24-20-------|-------------|--------||
|----22-25----25----------------------------22----|-------------|--------||
|-22-------------------------------------------22-|-------------|--------||
|-------------------------------------------------|-------------|--------||
|
|  W                                                +W            +W
|-------------------------------------------------|-------------|--------||
|-------------------------------------------------|-------------|--------||
|-------------------------------------------------|-------------|--------||
|--6----------------------------------------------|-(6)---------|-(6)----||
|--6----------------------------------------------|-(6)---------|-(6)----||
|--4----------------------------------------------|-(4)---------|-(4)----||


   Tempo Change
    Q=170
    C5
     S  S  S  S  S  S  S  S  S  S  S  S  S  S  S  S
||--------------------------------------------------|
||o-11h13-13-13-13-13-11h13-16p13-13-13-13-13-13-13-|
||--------------------------------------------------|
||--------------------------------------------------|
||o-------------------------------------------------|
||--------------------------------------------------|
|
|    S  S  S  S  S  S  S  S  S  S  S  S  S  S  S  S
||--------------------------------------------------|
||o-------------------------------------------------|
||--------------------------------------------------|
||---8h10-10-10-10-10--8h10-13p10-10-10-10-10-10-10-|
||o-------------------------------------------------|
||--------------------------------------------------|
|
|          PM----------------------------------------
|    E     S  S  S  S  S  S  S  S  S  S  S  S  S  S
||--------------------------------------------------|
||o-------------------------------------------------|
||--------------------------------------------------|
||---5----------------------------------------------|
||o--3-----3--3--3--3--3--3--3--3--3--3--3--3--3--3-|
||--------------------------------------------------|


   S  S  S  S  S  S  S  S  S  S  S  S  S  S  S  S
|-15-15-15-13-13-13-11-11-13-13-13-11-11-11-------|
|-------------------------------------------15-15-|
|-------------------------------------------------|
|-------------------------------------------------|
|-------------------------------------------------|
|-------------------------------------------------|
|
|  S  S  S  S  S  S  S  S  S  S  S  S  S  S  S  S
|-------------------------------------------------|
|-------------------------------------------------|
|-12-12-12-10-10-10--8--8-10-10-10--8--8--8-------|
|-------------------------------------------12-12-|
|-------------------------------------------------|
|-------------------------------------------------|
|
|----------------------------------------------|
|  S  S  S  S  S  S  S  S  S  S  S  S  S  S  S  S
|-------------------------------------------------|
|-------------------------------------------------|
|-------------------------------------------------|
|-------------------------------------------------|
|--3--3--3--3--3--3--3--3--3--3--3--3--3--3--3--3-|
|-------------------------------------------------|


  Ab5
   S  S  S  S  S  S  S  S  S  S  S  S  S  S  S  S
|-------------------------------------------------|
|-11h13-13-13-13-13-11h13-16p13-13-13-13-13-13-13-|
|-------------------------------------------------|
|-------------------------------------------------|
|-------------------------------------------------|
|-------------------------------------------------|
|
|  S  S  S  S  S  S  S  S  S  S  S  S  S  S  S  S
|-------------------------------------------------|
|-------------------------------------------------|
|-------------------------------------------------|
|--8h10-10-10-10-10--8h10-13p10-10-10-10-10-10-10-|
|-------------------------------------------------|
|-------------------------------------------------|
|
|        PM------------------------------------|
|  E     S  S  S  S  S  S  S  S  S  S  S  S  S  S
|-------------------------------------------------|
|-------------------------------------------------|
|-------------------------------------------------|
|-------------------------------------------------|
|--6----------------------------------------------|
|--4-----4--4--4--4--4--4--4--4--4--4--4--4--4--4-|


                          Bb5
   S  S  S  S  S  S  S  S  S  S  S  S  S  S  S  S
|-15-15-15-13-13-13-11-11-13-13-13-11-11-11---------||
|-------------------------------------------15-15--o||
|---------------------------------------------------||
|---------------------------------------------------||
|--------------------------------------------------o||
|---------------------------------------------------||
|
|  S  S  S  S  S  S  S  S  S  S  S  S  S  S  S  S
|---------------------------------------------------||
|--------------------------------------------------o||
|-12-12-12-10-10-10--8--8-10-10-10--8--8--8---------||
|-------------------------------------------12-12---||
|--------------------------------------------------o||
|---------------------------------------------------||
|
|        PM------------|         PM------------|
|  E     S  S  S  S  S  S  E     S  S  S  S  S  S
|---------------------------------------------------||
|--------------------------------------------------o||
|---------------------------------------------------||
|--------------------------3------------------------||
|--6-----------------------1-----1--1--1--1--1--1--o||
|--4-----4--4--4--4--4--4---------------------------||


 Guitar Solo
  Ab5         C5       Bb5       C5           Ab5
  E   E +E  E E E Q    E E +E  E S S S S Q    S S S S  S  S  S  S  S  S  S  S S S S S
|--------------------|----------------------|-6s8-6s8-11s13-11s13-13s15-13s15-6s8-6s8-|
|-6b8-8-(8)-9-8-6----|-6-6-(6)-8-6----------|-----------------------------------------|
|-----------------8--|-------------8p5---5--|-----------------------------------------|
|--------------------|-----------------8----|-----------------------------------------|
|--------------------|----------------------|-----------------------------------------|
|--------------------|----------------------|-----------------------------------------|
|
| W                    W                      S S S S  S  S  S  S  S  S  S  S S S S S
|--------------------|----------------------|-----------------------------------------|
|--------------------|----------------------|-6s8-6s8-11s15-11s15-15s16-15s16-6s8-6s8-|
|--------------------|----------------------|-----------------------------------------|
|--------------------|----------------------|-----------------------------------------|
|--------------------|----------------------|-----------------------------------------|
|--------------------|----------------------|-----------------------------------------|
|
|                                                 PM--------------------------------|
| H           H        H         H            E   S S  S  S  S  S  S  S  S  S S S S S
|--------------------|----------------------|-----------------------------------------|
|--------------------|----------------------|-----------------------------------------|
|-------------5------|-3---------5----------|-----------------------------------------|
|-6-----------5------|-3---------5----------|-----------------------------------------|
|-6-----------3------|-1---------3----------|-6---------------------------------------|
|-4------------------|----------------------|-4---4-4--4--4--4--4--4--4--4--4-4-4-4-4-|


  Bb5
  S S  S  S S S  S  S  S  S S  S S  S   E
|-8-8-----------------------8----8-11-[11]---|
|-----11-11-6-6-11-11-11-11---11-------------|
|--------------------------------------------|
|--------------------------------------------|
|--------------------------------------------|
|--------------------------------------------|
|
| W
|--------------------------------------------|
|--------------------------------------------|
|--------------------------------------------|
|--------------------------------------------|
|--------------------------------------------|
|--------------------------------------------|
|
|      PM----------------------------------|
| E    S  S S S  S  S  S  S S  S S  S   S  S
|--------------------------------------------|
|--------------------------------------------|
|--------------------------------------------|
|-3------------------------------------------|
|-1----1--1-1-1--1--1--1--1-1--1-1--1---1--1-|
|--------------------------------------------|


  C5          Ab5          Bb5      C5
  E E +E  S S   E. E. E     E. E. E S S S S Q
|-8-8-(8)-6-8-[11]-6-----|---------------------|
|---------------------8s=|=11--8----6h8p6h8----|
|------------------------|--------8---------5--|
|------------------------|---------------------|
|------------------------|---------------------|
|------------------------|---------------------|
|
| W                         W
|------------------------|---------------------|
|------------------------|---------------------|
|------------------------|---------------------|
|------------------------|---------------------|
|------------------------|---------------------|
|------------------------|---------------------|
|
| H             H           H       H
|------------------------|---------------------|
|------------------------|---------------------|
|-5----------------------|--3-------5----------|
|-5-------------6--------|--3-------5----------|
|-3-------------6--------|--1-------3----------|
|---------------4--------|---------------------|


  G5                                  Ab5                     Bb5
                                                               \1/   \1/   \1/
  S S S S S  S S S S S S S S  S S S    S  S  S  S  S  S  S  S  E.   +E.   +E
|-----------------------------------|-11----11-13-15p13p11----------------------||
|-8-8-8-6-8-11p8-6-8-8-8-6-8-11p8-6-|----11----------------13-------------------||
|-----------------------------------|-------------------------15---(15)--(15)---||
|-----------------------------------|-------------------------------------------||
|-----------------------------------|-------------------------------------------||
|-----------------------------------|-------------------------------------------||
|
| W                                    W
|-----------------------------------|-------------------------------------------||
|-----------------------------------|-------------------------------------------||
|-----------------------------------|-------------------------------------------||
|-----------------------------------|-------------------------------------------||
|-----------------------------------|-------------------------------------------||
|-----------------------------------|-------------------------------------------||
|
|     PM--------------------------|
| E   S S S  S S S S S S S S  S S S    H                       H
|-----------------------------------|-------------------------------------------||
|-----------------------------------|-------------------------------------------||
|-----------------------------------|--------------------------3----------------||
|-----------------------------------|--6-----------------------3----------------||
|-5---------------------------------|--6-----------------------1----------------||
|-3---3-3-3--3-3-3-3-3-3-3-3--3-3-3-|--4----------------------------------------||


    C5
     S  S  S  S  S  S  S  S  S  S  S  S  S  S  S  S
||--------------------------------------------------|
||o-11h13-13-13-13-13-11h13-16p13-13-13-13-13-13-13-|
||--------------------------------------------------|
||--------------------------------------------------|
||o-------------------------------------------------|
||--------------------------------------------------|
|
|    S  S  S  S  S  S  S  S  S  S  S  S  S  S  S  S
||--------------------------------------------------|
||o-------------------------------------------------|
||--------------------------------------------------|
||---8h10-10-10-10-10--8h10-13p10-10-10-10-10-10-10-|
||o-------------------------------------------------|
||--------------------------------------------------|
|
|          PM----------------------------------------
|    E     S  S  S  S  S  S  S  S  S  S  S  S  S  S
||--------------------------------------------------|
||o-------------------------------------------------|
||--------------------------------------------------|
||---5----------------------------------------------|
||o--3-----3--3--3--3--3--3--3--3--3--3--3--3--3--3-|
||--------------------------------------------------|


   S  S  S  S  S  S  S  S  S  S  S  S  S  S  S  S
|-15-15-15-13-13-13-11-11-13-13-13-11-11-11-------|
|-------------------------------------------15-15-|
|-------------------------------------------------|
|-------------------------------------------------|
|-------------------------------------------------|
|-------------------------------------------------|
|
|  S  S  S  S  S  S  S  S  S  S  S  S  S  S  S  S
|-------------------------------------------------|
|-------------------------------------------------|
|-12-12-12-10-10-10--8--8-10-10-10--8--8--8-------|
|-------------------------------------------12-12-|
|-------------------------------------------------|
|-------------------------------------------------|
|
|----------------------------------------------|
|  S  S  S  S  S  S  S  S  S  S  S  S  S  S  S  S
|-------------------------------------------------|
|-------------------------------------------------|
|-------------------------------------------------|
|-------------------------------------------------|
|--3--3--3--3--3--3--3--3--3--3--3--3--3--3--3--3-|
|-------------------------------------------------|


  Ab5
   S  S  S  S  S  S  S  S  S  S  S  S  S  S  S  S
|-------------------------------------------------|
|-11h13-13-13-13-13-11h13-16p13-13-13-13-13-13-13-|
|-------------------------------------------------|
|-------------------------------------------------|
|-------------------------------------------------|
|-------------------------------------------------|
|
|  S  S  S  S  S  S  S  S  S  S  S  S  S  S  S  S
|-------------------------------------------------|
|-------------------------------------------------|
|-------------------------------------------------|
|--8h10-10-10-10-10--8h10-13p10-10-10-10-10-10-10-|
|-------------------------------------------------|
|-------------------------------------------------|
|
|        PM------------------------------------|
|  E     S  S  S  S  S  S  S  S  S  S  S  S  S  S
|-------------------------------------------------|
|-------------------------------------------------|
|-------------------------------------------------|
|-------------------------------------------------|
|--6----------------------------------------------|
|--4-----4--4--4--4--4--4--4--4--4--4--4--4--4--4-|


                          Bb5
   S  S  S  S  S  S  S  S  S  S  S  S  S  S  S  S
|-15-15-15-13-13-13-11-11-13-13-13-11-11-11---------||
|-------------------------------------------15-15--o||
|---------------------------------------------------||
|---------------------------------------------------||
|--------------------------------------------------o||
|---------------------------------------------------||
|
|  S  S  S  S  S  S  S  S  S  S  S  S  S  S  S  S
|---------------------------------------------------||
|--------------------------------------------------o||
|-12-12-12-10-10-10--8--8-10-10-10--8--8--8---------||
|-------------------------------------------12-12---||
|--------------------------------------------------o||
|---------------------------------------------------||
|
|        PM------------|         PM------------|
|  E     S  S  S  S  S  S  E     S  S  S  S  S  S
|---------------------------------------------------||
|--------------------------------------------------o||
|---------------------------------------------------||
|--------------------------3------------------------||
|--6-----------------------1-----1--1--1--1--1--1--o||
|--4-----4--4--4--4--4--4---------------------------||


 Guitar Solo
  Ab5              C5           Bb5      C5
  S S S S   E  S S E  E E  E    E. E.  E  Q      +Q
|-----------------------------|-----------------------|
|-----------------------------|-----------------------|
|-5-5-5-5--[8]-5-5-7------[7]-|----------[7]b9r==(7)--|
|---------------------8-5-----|-5--6---8--------------|
|-----------------------------|-----------------------|
|-----------------------------|-----------------------|
|
| S S S S   E  S S E  E E  E    E. E.  E  Q      +Q
|-----------------------------|-----------------------|
|-----------------------------|-----------------------|
|-----------------------------|-----------------------|
|-6-6-6-6-[10]-6-6-8------[8]-|----------[8]b10r=(8)--|
|--------------------10-6-----|-6--8--10--------------|
|-----------------------------|-----------------------|
|
| H                H            H         H
|-----------------------------|-----------------------|
|-----------------------------|-----------------------|
|------------------5----------|-3---------5-----------|
|-6----------------5----------|-3---------5-----------|
|-6----------------3----------|-1---------3-----------|
|-4---------------------------|-----------------------|


  Ab5                               Bb5
                                                             ~~~
  S S S S S S S S S S S S S S S S   S S S S S S S S S S S S  Q
|---------------------------------|-------------------------[6]-------|
|-------------------------9-8-6-8-|-----------6-8-9-8-6-8-9-----------|
|-----5-7-8-7-5-7-5---7-8---------|-5---5-7-8-------------------------|
|-7-8---------------8-------------|---8-------------------------------|
|---------------------------------|-----------------------------------|
|---------------------------------|-----------------------------------|
|
| W                                 W
|---------------------------------|-----------------------------------|
|---------------------------------|-----------------------------------|
|---------------------------------|-----------------------------------|
|---------------------------------|-----------------------------------|
|---------------------------------|-----------------------------------|
|---------------------------------|-----------------------------------|
|
|     PM------------------------|       PM--------------------------|
| E   S S S S S S S S S S S S S S   E   S S S S S S S S S S  S  S S S
|---------------------------------|-----------------------------------|
|---------------------------------|-----------------------------------|
|---------------------------------|-----------------------------------|
|---------------------------------|-3---------------------------------|
|-6-------------------------------|-1---1-1-1-1-1-1-1-1-1-1--1--1-1-1-|
|-4---4-4-4-4-4-4-4-4-4-4-4-4-4-4-|-----------------------------------|


  C5        Ab5         Bb5             C5
   E.  E. E E.  E. E     S  S  S  S  Q   S  S  S  Q  S
|-----[6]-------------|-------------13--13-11-10-11----|
|--8------8-6--[8]-6--|--------------------------------|
|---------------------|--8s10--8s10--------------------|
|---------------------|--------------------------------|
|---------------------|--------------------------------|
|---------------------|--------------------------------|
|
|  E.  E. E E.  E. E     S  S  S  S  Q   S  S  S  Q  S
|---------------------|--------------------------------|
|-----[8]-------------|-------------15--15-13-11-13----|
|-/8------8-7--[8]-7--|--------------------------------|
|---------------------|-10s12-10s12--------------------|
|---------------------|--------------------------------|
|---------------------|--------------------------------|
|
|  H        H            H               H
|---------------------|--------------------------------|
|---------------------|--------------------------------|
|--5------------------|--3---------------5-------------|
|--5--------6---------|--3---------------5-------------|
|--3--------6---------|--1---------------3-------------|
|-----------4---------|--------------------------------|


  G5                                     Ab5             Bb5
   S  S  S  S S S  S S S S S S S S S S   S S S S S S S S S S S S S  S S  S
|-13----15----8---10-------------------|-------------------------8-11-8-11----||
|----13----13---8----8-9-6-------------|-----------------6---6-8--------------||
|--------------------------8-5-8---5---|-----5---5-8-5-8---8------------------||
|--------------------------------8---8-|-5-8---8------------------------------||
|--------------------------------------|--------------------------------------||
|--------------------------------------|--------------------------------------||
|
|  W                                     W
|--------------------------------------|--------------------------------------||
|--------------------------------------|--------------------------------------||
|--------------------------------------|--------------------------------------||
|--------------------------------------|--------------------------------------||
|--------------------------------------|--------------------------------------||
|--------------------------------------|--------------------------------------||
|
|        PM--------------------------|
|  E     S  S S S  S S S S S S S S S S   H               H
|--------------------------------------|--------------------------------------||
|--------------------------------------|--------------------------------------||
|--------------------------------------|-----------------3--------------------||
|--------------------------------------|-6---------------3--------------------||
|--5-----------------------------------|-6---------------1--------------------||
|--3-----3--3-3-3--3-3-3-3-3-3-3-3-3-3-|-4------------------------------------||


 Pre-Solo
  Q=200
  C5
   E  S  S  E   E  E  E  E  E    E  S  S  E   E  E  E  Q
|-15-15-15-15--13----------13-|-15-15-15-15--13----18-15--|
|-----------------16-13-16----|-----------------16--------|
|-----------------------------|---------------------------|
|-----------------------------|---------------------------|
|-----------------------------|---------------------------|
|-----------------------------|---------------------------|
|
|  E  S  S  E   E  E  E  E  E    E  S  S  E   E  E  E  Q
|-----------------------------|---------------------------|
|-----------------------------|--------------------11-----|
|-12-12-12-12--10----------10-|-12-12-12-12--10-------12--|
|-----------------13-10-13----|-----------------13--------|
|-----------------------------|---------------------------|
|-----------------------------|---------------------------|
|
|  Q        H.                   Q        H.
|-----------------------------|---------------------------|
|-----------------------------|---------------------------|
|--5--------------------------|--5------------------------|
|--5--------------------------|--5------------------------|
|--3--------------------------|--3------------------------|
|-----------------------------|---------------------------|


                                Ab5
   E  S  S  E   E  E  E  E  E    S  S  S  S  S  S  S  S  S  S  S  S   Q
|-15-15-15-15--13----------13-|-13h15p13----------13-15-18p15----15-[15]----|
|-----------------16-13-16----|----------16-13-16-------------18------------|
|-----------------------------|---------------------------------------------|
|-----------------------------|---------------------------------------------|
|-----------------------------|---------------------------------------------|
|-----------------------------|---------------------------------------------|
|
|  E  S  S  E   E  E  E  E  E    S  S  S  S  S  S  S  S  S  S  S  S   Q
|-----------------------------|---------------------------------------------|
|-----------------------------|---------------------------------------------|
|-12-12-12-12--10----------10-|-10h12p10----------10-12-15p12-10-12-[12]----|
|-----------------13-10-13----|----------13-10-13---------------------------|
|-----------------------------|---------------------------------------------|
|-----------------------------|---------------------------------------------|
|
|  Q        H.                   W
|-----------------------------|---------------------------------------------|
|-----------------------------|---------------------------------------------|
|--5--------------------------|---------------------------------------------|
|--5--------------------------|--6------------------------------------------|
|--3--------------------------|--6------------------------------------------|
|-----------------------------|--4------------------------------------------|


  C5
   E  S  S  E   E  E  E  E  E    E  S  S  E   E  E  E  Q     E  S  S  E   E  E  E  E  E
|-15-15-15-15--13----------13-|-15-15-15-15--13----18-15--|-15-15-15-15--13----------13-|
|-----------------16-13-16----|-----------------16--------|-----------------16-13-16----|
|-----------------------------|---------------------------|-----------------------------|
|-----------------------------|---------------------------|-----------------------------|
|-----------------------------|---------------------------|-----------------------------|
|-----------------------------|---------------------------|-----------------------------|
|
|  E  S  S  E   E  E  E  E  E    E  S  S  E   E  E  E  Q     E  S  S  E   E  E  E  E  E
|-----------------------------|---------------------------|-----------------------------|
|-----------------------------|--------------------15-----|-----------------------------|
|-15-15-15-15--13-12----12-13-|-15-15-15-15--13-12----15--|-15-15-15-15--13-12----12-13-|
|--------------------13-------|---------------------------|--------------------13-------|
|-----------------------------|---------------------------|-----------------------------|
|-----------------------------|---------------------------|-----------------------------|
|
|  Q        H.                   Q        H.                 Q        H.
|-----------------------------|---------------------------|-----------------------------|
|-----------------------------|---------------------------|-----------------------------|
|--5--------------------------|--5------------------------|--5--------------------------|
|--5--------------------------|--5------------------------|--5--------------------------|
|--3--------------------------|--3------------------------|--3--------------------------|
|-----------------------------|---------------------------|-----------------------------|


  Ab5                                  G5
   S  S  S  S  S  S  S  S E  E  E  E    S  S  S  S  S  S  S  S  E  E  E E   W
|-15p13----------13-15p13-8-11-13-15-|-15p13----------13-------15-13-11-8-|------||
|-------16-13-16---------------------|-------16-13-16----16p13------------|------||
|-------------------------5--8-10-12-|-------------------------12-10--8-5-|------||
|------------------------------------|------------------------------------|------||
|------------------------------------|------------------------------------|------||
|------------------------------------|------------------------------------|------||
|
|  S  S  S  S  S  S  S  S E  E  E  E    S  S  S  S  S  S  S  S  E  E  E E   W
|-------------------------8-11-13-15-|-------------------------15-13-11-8-|------||
|------------------------------------|------------------------------------|------||
|-15-13-12-13-12-13-15-13-5--8-10-12-|-15-13-12-13-12-13-15-13-12-10--8-5-|------||
|------------------------------------|------------------------------------|------||
|------------------------------------|------------------------------------|------||
|------------------------------------|------------------------------------|------||
|
|  W                                    W                                   W
|------------------------------------|------------------------------------|------||
|------------------------------------|------------------------------------|------||
|------------------------------------|------------------------------------|------||
|--6---------------------------------|--5---------------------------------|------||
|--6---------------------------------|--5---------------------------------|------||
|--4---------------------------------|--3---------------------------------|------||


 Guitar Solo
  C5
  Gtr II
                                                                                         
   ~~~~~
   S  S  S  S  S  S  S  S  S  S  S  S  S  S  S  S    S  S  S  S  S.    S.    S  S  S  S  
S  Q
|-------------------------------------------------|----------------------------------------------------|
|-------------------------------------------------|-------13----13----15----16-15-16-18-16-18b20-------|
|-------------------------------------12----12-13-|-12-13----15----------------------------------------|
|-13-12----12----------------12-13-15----15-------|----------------------------------------------------|
|-------15----15-11----11-15----------------------|----------------------------------------------------|
|-------------------15----------------------------|----------------------------------------------------|
|
| Gtr I
|        PM------------------------------------------------------------------------------------------|
|  E     S  S  S  S  S  S  S  S  S  S  S  S  S  S    S  S  S  S  S  S     S  S  S  S  S  S
 S    S S S
|-------------------------------------------------|----------------------------------------------------|
|-------------------------------------------------|----------------------------------------------------|
|-------------------------------------------------|----------------------------------------------------|
|--5----------------------------------------------|----------------------------------------------------|
|--3-----3--3--3--3--3--3--3--3--3--3--3--3--3--3-|--3--3--3--3--3--3-----3--3--3--3--3--3--3----3-3-3-|
|-------------------------------------------------|----------------------------------------------------|


  Ab5
                                                                   
   S  S  S  S  S  S  S  S  S  S  S  S  S  S  S  S    
  +S       +S   +S       +S   +S
|-13----------------------13----13-15-13-15-16----|
|----16-15-13----13-15-16----16----------------18-|
|-------------13----------------------------------|
|-------------------------------------------------|
|-------------------------------------------------|
|-------------------------------------------------|
|
|        PM---------------------------------------|
|  E     S  S  S  S  S  S  S  S  S  S  S  S  S  S   
|  S        S    S        S    S
|-------------------------------------------------|
|-------------------------------------------------|
|-------------------------------------------------|
|-------------------------------------------------|
|--6----------------------------------------------|
|--4-----4--4--4--4--4--4--4--4--4--4--4--4--4--4-|


 Ab5
                           ~~~~~~~~~~~~~~~~~~~~~~~~~~~~~~~~~~~~~~~~~~~~~~
  S  S  S  S  S  S  S  S  E        +S 

|-16-15-18-15-------------18b20====(18)r(18)b20==(18)r(18)b20==(18)r(18)--|
|-------------18-16-15-16-------------------------------------------------|
|-------------------------------------------------------------------------|
|-------------------------------------------------------------------------|
|-------------------------------------------------------------------------|
|-------------------------------------------------------------------------|
|
|PM-----------------------------------------------|
|  S  S  S  S  S  S  S  S  S     S   S 
|  
|-------------------------------------------------------------------------|
|-------------------------------------------------------------------------|
|-------------------------------------------------------------------------|
|-------------------------------------------------------------------------|
|-------------------------------------------------------------------------|
|--4--4--4--4--4--4--4--4--4-----4---4----4--------4----4--------4----4---|


  Bb5
                                              ~~~~~                                      
  ~~
   S  S  S  S  S  S  S  S  S   S  S  S  S  S  S  S    S  S  S  S  S  S  S  S  S   S  S  
S  Q
|-20-18-20-16-20-15-13--------------13-15-16-18-18-|-18-16-18-15-18-13-----------------13-16--|
|----------------------16-15--13-15----------------|-------------------16-15-13--15-16--------|
|--------------------------------------------------|------------------------------------------|
|--------------------------------------------------|------------------------------------------|
|--------------------------------------------------|------------------------------------------|
|--------------------------------------------------|------------------------------------------|
|
|        PM------|                                          PM------|
|  E     S  S  S  S  E    +H                          E     S  S  S  S  E    +H
|--------------------------------------------------|------------------------------------------|
|--------------------------------------------------|------------------------------------------|
|--------------------3----(3)----------------------|--------------------3----(3)--------------|
|--3-----------------3----(3)----------------------|--3-----------------3----(3)--------------|
|--1-----1--1--1--1--1----(1)----------------------|--1-----1--1--1--1--1----(1)--------------|
|--------------------------------------------------|------------------------------------------|


  C5
   S  S  S  S  S  S  S  S  S  S  S  S  S  S  S  S    S  S  S  S  S  S  S  S  S  S  S  S  S
 S  S  S
|-------13----13-15-13----13----------------------|----------------------------------------------------||
|-13-16----16----------16----16-15-16-15-13-------|-------------------------------------------13-15----||
|-------------------------------------------15-12-|-13-15-13-12----------------------12-13-15----------||
|-------------------------------------------------|-------------15-13-12----12-13-15-------------------||
|-------------------------------------------------|----------------------15----------------------------||
|-------------------------------------------------|----------------------------------------------------||
|
|  PM---|            PM---------|            PM-----|                              PM---------|
|  E     E     E     E     E     E     E     E       E     Q           E     E     E     E
    E
|-------------------------------------------------|----------------------------------------------------||
|-------------------------------------------------|----------------------------------------------------||
|-------------------------------------------------|--------5-----------3-----5-------------------------||
|--------------5-----------------------5----------|--------5-----------3-----5-------------------------||
|--3-----3-----3-----3-----3-----3-----3-----3----|--3-----------------------------3-----3-----3-------||
|-------------------------------------------------|----------------------------------------------------||


 Slide
  Gtr II
   Q      E     Q        E    E    E      E    E    E    E    E    E     Q
|-20-----18S===23-------18---20---18---|-20S==18---15S==13-------------/15-------|
|--------------------------------------|---------------------13S==11-------------|
|--------------------------------------|-----------------------------------------|
|--------------------------------------|-----------------------------------------|
|--------------------------------------|-----------------------------------------|
|--------------------------------------|-----------------------------------------|
|
| Gtr III
|  Q      E     Q        E    E    E      E    E    E    E    E    E     Q
|-15-----13---/20-------13---15---13---|-15S==13-----------------------/11-------|
|--------------------------------------|-----------16S==15-----------------------|
|--------------------------------------|---------------------13S==12-------------|
|--------------------------------------|-----------------------------------------|
|--------------------------------------|-----------------------------------------|
|--------------------------------------|-----------------------------------------|
|
| Gtr I
|    PM------------------------------------------------------------------------|
|  E S S  S S   S S S S  S S  S S  S S    S S  S S  S S  S S  S S  S S   S S S S
|--------------------------------------|-----------------------------------------|
|--------------------------------------|-----------------------------------------|
|--------------------------------------|-----------------------------------------|
|--5-----------------------------------|-----------------------------------------|
|--3-3-3--3-3---3-3-3-3--3-3--3-3--3-3-|--3-3--3-3--3-3--3-3--3-3--3-3---3-3-3-3-|
|--------------------------------------|-----------------------------------------|


  Ab5
   E  E   E     E    E    E    Q            E      E     E    E    E    E    Q
|-22-22s==6S===23---22---20s==18-------|-/[13]---[13]S===1---15---13s==20---20----------|
|--------------------------------------|------------------------------------------------|
|--------------------------------------|------------------------------------------------|
|--------------------------------------|------------------------------------------------|
|--------------------------------------|------------------------------------------------|
|--------------------------------------|------------------------------------------------|
|
|  E  E   E     E    E    E    Q            E      E     E    E    E    E    Q
|--------------------------------------|------------------------------------------------|
|-23-23s==8---/23---23---22s==20-------|-/[15]---[15]---\3---16---15s==20---18----------|
|--------------------------------------|------------------------------------------------|
|--------------------------------------|------------------------------------------------|
|--------------------------------------|------------------------------------------------|
|--------------------------------------|------------------------------------------------|
|
|     PM---------------------------------------------------------------------------|
|  E  S S S S   S S  S S  S S  S S S S      S  S   S  S  S S  S S  S S  S S  S S S S
|--------------------------------------|------------------------------------------------|
|--------------------------------------|------------------------------------------------|
|--------------------------------------|------------------------------------------------|
|--------------------------------------|------------------------------------------------|
|--6-----------------------------------|------------------------------------------------|
|--4--4-4-4-4---4-4--4-4--4-4--4-4-4-4-|----4--4---4--4--4-4--4-4--4-4--4-4--4-4-4-4----|


  Bb5
     ~~~~~~~~~~~~~~~~~~~~~~~~~~~~~~~~~~~~~~~~~~~~~~~~~~~~~~~~~~~~~~~~~~~~
     S    S    S    S    S   S  S  S   S    S    S    S    S   S   S   S
|---------------------------15-20s15--------------------------20s[15]----|
|----------------------[16]----------[16]----------------[16]---------16-|
|-----------------[17]--------------------[17]------[17]-----------------|
|------------[17]------------------------------[17]----------------------|
|-/[15]-[18]-------------------------------------------------------------|
|------------------------------------------------------------------------|
|
|    W
|------------------------------------------------------------------------|
|------------------------------------------------------------------------|
|------------------------------------------------------------------------|
|------------------------------------------------------------------------|
|------------------------------------------------------------------------|
|------------------------------------------------------------------------|
|
|              PM--------------------------------------------------------|
|    E         S    S    S   S  S  S   S    S    S    S    S   S   S   S
|------------------------------------------------------------------------|
|------------------------------------------------------------------------|
|------------------------------------------------------------------------|
|----3-------------------------------------------------------------------|
|----1---------1----1----1---1--1--1---1----1----1----1----1---1---1---1-|
|------------------------------------------------------------------------|


  Bb5
~~~~~~~~~~~~~~~~~~~~~~~~~~~~~~~~~~~~~~~~~~~~~~~~ T   ~~~~~~~~~~~~~
    S  S   S  S  S   S    S    S    S   S   S    S    Q
|--------/15-20s15---------------------20-----------[20]-------|
|-----16-----------[16]------[16]--------------[16]------------|
|-/17-------------------[17]------[17]----[17]-----------------|
|--------------------------------------------------------------|
|--------------------------------------------------------------|
|--------------------------------------------------------------|
|
|    W
|--------------------------------------------------------------|
|--------------------------------------------------------------|
|--------------------------------------------------------------|
|--------------------------------------------------------------|
|--------------------------------------------------------------|
|--------------------------------------------------------------|
|
|PM------------------------------------------------------------|
|    S  S   S  S  S   S    S    S    S   S   S    S    S  S S S
|--------------------------------------------------------------|
|--------------------------------------------------------------|
|--------------------------------------------------------------|
|--------------------------------------------------------------|
|---1--1---1--1--1---1----1----1----1---1---1----1----1--1-1-1-|
|--------------------------------------------------------------|


  C5
    T         T         T                 T         T         T
    S    S    S    S    S   S    S    S   S    S    S    S    S   S    S    S
|-[20]-[15]-[20]-[15]-[20][15]-[13]-[15][20]-[15]-[20]-[15]-[20][15]-[13]-[15]|
|-----------------------------------------------------------------------------|
|-----------------------------------------------------------------------------|
|-----------------------------------------------------------------------------|
|-----------------------------------------------------------------------------|
|-----------------------------------------------------------------------------|
|
|   T         T         T                 T         T         T
|   S    S    S    S    S   S    S    S   S    S    S    S    S   S    S    S
|-----------------------------------------------------------------------------|
|--20---16---20---16---20s=16---15---16s=20---16---20---16---20s=16---15---16s|
|-----------------------------------------------------------------------------|
|-----------------------------------------------------------------------------|
|-----------------------------------------------------------------------------|
|-----------------------------------------------------------------------------|
|
|   W
|-----------------------------------------------------------------------------|
|-----------------------------------------------------------------------------|
|---5-------------------------------------------------------------------------|
|---5-------------------------------------------------------------------------|
|---3-------------------------------------------------------------------------|
|-----------------------------------------------------------------------------|


  C5
    T         T         T
    S    S    S    S    S   S    S    S
|-[20]-[15]-[20]-[15]-[20][15]-[13]-[15]-1------------------|
|-----------------------------------------------------------|
|-----------------------------------------------------------|
|-----------------------------------------------------------|
|-----------------------------------------------------------|
|-----------------------------------------------------------|
|
|             T         T         T
|   S    S    S    S    S   S    S    S
|-----------------------------------------------------------|
|==20---16---20---16---20s=16---15---16--1------------------|
|-----------------------------------------------------------|
|-----------------------------------------------------------|
|-----------------------------------------------------------|
|-----------------------------------------------------------|
|
|   W
|-----------------------------------------------------------|
|-----------------------------------------------------------|
|---5-------------------------------------------------------|
|---5-------------------------------------------------------|
|---3-------------------------------------------------------|
|-----------------------------------------------------------|








  F5
   S.  S.    S  S  S  S  S  S  S  S  S  S  S  S  S     E  Q    E  E  E  Q
|--------------------------------------10-12-13-15-|-/18-18---20-18--------|
|--------------------------------11-13-------------|----------------20-16--|
|--------------------10-12-10-12-------------------|-----------------------|
|--------------10-12-------------------------------|-----------------------|
|-10--11----13-------------------------------------|-----------------------|
|--------------------------------------------------|-----------------------|
|
|  S.  S.    S  S  S  S  S  S  S  S  S  S  S  S  S     E  Q    E  E  E  Q
|--------------------------------------------------|-----------------------|
|--------------------------------------11-13-15-16-|-/18-18---20-18--------|
|--------------------------------12-14-------------|----------------20-17--|
|--------------------12-13-12-13-------------------|-----------------------|
|--------------11-13-------------------------------|-----------------------|
|-11--13----15-------------------------------------|-----------------------|
|
|         PM------------------------------------|
|  E      S  S  S  S  S  S  S  S  S  S  S  S  S  S     E  E E  E  H
|--------------------------------------------------|-----------------------|
|--------------------------------------------------|-----------------------|
|--------------------------------------------------|-----------------------|
|--------------------------------------------------|--------------3--------|
|--3-----------------------------------------------|---3--3----3--3--------|
|--1------1--1--1--1--1--1--1--1--1--1--1--1--1--1-|---1--1----1--1--------|


  C5
   T        T        T        T        T        T        T        T
   |--3--|  |--3--|  |--3--|  |--3--|  |--3--|  |--3--|  |--3--|  |--3--|
   S  S  S  S  S  S  S  S  S  S  S  S  S  S  S  S  S  S  S  S  S  S  S  S    S  S  S  S  E
  E  E  E  E  E
|-------------------------------------------------------------------------|-20-20-20-20-18--15s18s15----15--|
|-20-15-11-20-11-15-20-15-11-20-11-15-20-15-11-20-11-15-20-15-11-20-11-15-|--------------------------18-----|
|-------------------------------------------------------------------------|---------------------------------|
|-------------------------------------------------------------------------|---------------------------------|
|-------------------------------------------------------------------------|---------------------------------|
|-------------------------------------------------------------------------|---------------------------------|
|
|  T        T        T        T        T        T        T        T
|  |--3--|  |--3--|  |--3--|  |--3--|  |--3--|  |--3--|  |--3--|  |--3--|
|  S  S  S  S  S  S  S  S  S  S  S  S  S  S  S  S  S  S  S  S  S  S  S  S    S  S  S  S  E
  E  E  E  E  E
|-------------------------------------------------------------------------|---------------------------------|
|-------------------------------------------------------------------------|-20-20-20-20-18--16s18s16----16--|
|-17-12--8-17--8-12-17-12--8-17--8-12-17-12--8-17--8-12-17-12--8-17--8-12-|--------------------------19-----|
|-------------------------------------------------------------------------|---------------------------------|
|-------------------------------------------------------------------------|---------------------------------|
|-------------------------------------------------------------------------|---------------------------------|
|
|  E        E        H                                   E        E          E     E     H.
|-------------------------------------------------------------------------|---------------------------------|
|-------------------------------------------------------------------------|---------------------------------|
|--5--------5-----------------------------------------------------5-------|--5-----5------------------------|
|--5--------5-----------------------------------------------------5-------|--5-----5------------------------|
|--3--------3-----------------------------------------------------3-------|--3-----3------------------------|
|-------------------------------------------------------------------------|---------------------------------|


 Fast Tapping
  Ab5
   T     T     T     T     T     T     T     T     T     T     T     T     T     T     T 
    T
   T  T  T  T  T  T  T  T  T  T  T  T  T  T  T  T  T  T  T  T  T  T  T  T  T  T  T  T  T 
 T  T  T
|-20-11-20-11-18-11-18-11-20-11-20-11-16-11-16-11-20-11-20-11-18-11-18-11-20-11-20-11-15-11-15-11-|
|-------------------------------------------------------------------------------------------------|
|-------------------------------------------------------------------------------------------------|
|-------------------------------------------------------------------------------------------------|
|-------------------------------------------------------------------------------------------------|
|-------------------------------------------------------------------------------------------------|
|
|  T     T     T     T     T     T     T     T     T     T     T     T     T     T     T 
    T
|  T  T  T  T  T  T  T  T  T  T  T  T  T  T  T  T  T  T  T  T  T  T  T  T  T  T  T  T  T 
 T  T  T
|-------------------------------------------------------------------------------------------------|
|-------------------------------------------------------------------------------------------------|
|-17--8-17--8-15--8-15--8-17--8-17--8-13--8-13--8-17--8-17--8-15--8-15--8-17--8-17--8-12--8-12--8-|
|-------------------------------------------------------------------------------------------------|
|-------------------------------------------------------------------------------------------------|
|-------------------------------------------------------------------------------------------------|
|
|              PM----------------------------------------------------------------------------------
|  E           S     S     S     S     S     S     S     S     S     S     S     S     S 
    S
|-------------------------------------------------------------------------------------------------|
|-------------------------------------------------------------------------------------------------|
|-------------------------------------------------------------------------------------------------|
|-------------------------------------------------------------------------------------------------|
|--6----------------------------------------------------------------------------------------------|
|--4-----------4-----4-----4-----4-----4-----4-----4-----4-----4-----4-----4-----4-----4-----4----|


   S  S  S  S  S  S  S  S  S  S  S  S  E    E
|-20p16----------------16-18-16-18-20-23--------|
|-------16----------16---------------------21---|
|----------17----17-----------------------------|
|-------------18--------------------------------|
|-----------------------------------------------|
|-----------------------------------------------|
|
|  S  S  S  S  S  S  S  S  S  S  S  S  E    E
|-------------------------------------20--------|
|-21s18----------------18-20-18-20-21------16---|
|-------17----------17--------------------------|
|----------18----18-----------------------------|
|-------------20--------------------------------|
|-----------------------------------------------|
|
|---------------------------------------------|
|  S  S  S  S  S  S  S  S  S  S  S  S  S S  S S
|-----------------------------------------------|
|-----------------------------------------------|
|-----------------------------------------------|
|-----------------------------------------------|
|-----------------------------------------------|
|--4--4--4--4--4--4--4--4--4--4--4--4--4-4--4-4-|


  Bb5
   S  S  S  S  S   S  S  S  Q..      +S
|----18----18-----22----22-22pb25r==(22)-|
|-18----18----18-----18------------------|
|----------------------------------------|
|----------------------------------------|
|----------------------------------------|
|----------------------------------------|
|
|  S  S  S  S  S   S  S  S  Q..      +S
|----------------------------------------|
|----18----18-----23----23-23pb27r==(23)-|
|-17----17----19-----19------------------|
|----------------------------------------|
|----------------------------------------|
|----------------------------------------|
|
|  Q           H.
|----------------------------------------|
|----------------------------------------|
|--3-------------------------------------|
|--3-------------------------------------|
|--1-------------------------------------|
|----------------------------------------|


                            ~~~~~~~~~~~~~~
   S  S  S  S  S   S  S  S  E     +Q.
|-----------------------10-16b20r(16)b20r===||
|-------------10--11-13---------------------||
|-----8-10-12-------------------------------||
|-12----------------------------------------||
|-------------------------------------------||
|-------------------------------------------||
|
|                           ~~~~~~~~~~~~~~
|  S  S  S  S  S   S  S  S  E     +Q.
|-------------------------------------------||
|-----------------------11-20b23r(20)b23r===||
|-------------10--12-14---------------------||
|----10-12-13-------------------------------||
|-13----------------------------------------||
|-------------------------------------------||
|
|  Q           H.
|-------------------------------------------||
|-------------------------------------------||
|--------------3----------------------------||
|--------------3----------------------------||
|--------------1----------------------------||
|-------------------------------------------||


 Chorus
  Eb5                      Bb5
  Gtr II
   ~~~~~~~~~~~~~~                    ~~~~~~~
   H        Q.      S  S    E  E  E  E  +Q.    S  S
|------------------------|--------------------------|
|-18b20----18b20---18-16-|-18-16--------------------|
|------------------------|-------17-15-(15)---------|
|------------------------|--------------------15h17-|
|------------------------|--------------------------|
|------------------------|--------------------------|
|
| Gtr I
|  W                        W
|------------------------|--------------------------|
|------------------------|--------------------------|
|--8---------------------|--------------------------|
|--8---------------------|--8-----------------------|
|--6---------------------|--8-----------------------|
|------------------------|--6-----------------------|


  Ab5
                                              ~~~~
   E  E  E  E  E  E  E  E    E    E  E    E   H
|-------------------------|-----------------------------|
|-------------------------|------16-18------[16]--------|
|-15-------------------15-|-17-----------15-------------|
|----17-16-15----15-17----|-----------------------------|
|-------------18----------|-----------------------------|
|-------------------------|-----------------------------|
|
|  W                         S S  E  S S  E   S  S E Q
|-------------------------|-----------------------------|
|-------------------------|-----------------------------|
|-------------------------|-----------------------------|
|--6----------------------|-----------------------------|
|--6----------------------|--6-6--6--6-6--6---6--6-6-6--|
|--4----------------------|--4-4--4--4-4--4---4--4-4-4--|


  C5                                  Bb5
  Gtr II
  Q      Q        E   E    E    E      Q.            Q        Q        E
|-------15-------16-------18---16---|-18b20r========18-------16-------15---|
|-----------------------------------|--------------------------------------|
|-----------------------------------|--------------------------------------|
|-----------------------------------|--------------------------------------|
|-----------------------------------|--------------------------------------|
|-----------------------------------|--------------------------------------|
|
| Gtr III
| Q      Q        E   E    E    E      Q.            Q        Q        E
|-----------------------------------|--------------------------------------|
|-------16-------18-------20---18---|-20b21r========20-------18-------16---|
|-----------------------------------|--------------------------------------|
|-----------------------------------|--------------------------------------|
|-----------------------------------|--------------------------------------|
|-----------------------------------|--------------------------------------|
|
| Gtr I
|   PM----------------------------|         PM---------------------------|
| E S S  S S S S  S S S S  S S  S S    E    S S S S  S S S S  S S S S  S S
|-----------------------------------|--------------------------------------|
|-----------------------------------|--------------------------------------|
|-----------------------------------|--------------------------------------|
|-5---------------------------------|--3-----------------------------------|
|-3-3-3--3-3-3-3--3-3-3-3--3-3--3-3-|--1----1-1-1-1--1-1-1-1--1-1-1-1--1-1-|
|-----------------------------------|--------------------------------------|


  Ab5
   E  E  E  E  E  E  E  E    +Q    E  E  E.    S  Q
|-16p15-------------------|--------------------------|
|-------16----------18-16-|-(16)--18-16-18b20r16-----|
|----------15----15-------|----------------------15--|
|-------------17----------|--------------------------|
|-------------------------|--------------------------|
|-------------------------|--------------------------|
|
|  E  E  E  E  E  E  E  E    +Q    E  E  E.    S  Q
|-13p11-------------------|--------------------------|
|-------11----------11-13-|-(13)--15-13-15b16r13-----|
|----------12----12-------|----------------------12--|
|-------------13----------|--------------------------|
|-------------------------|--------------------------|
|-------------------------|--------------------------|
|
|  W                         +W
|-------------------------|--------------------------|
|-------------------------|--------------------------|
|-------------------------|--------------------------|
|--6----------------------|--(6)---------------------|
|--6----------------------|--(6)---------------------|
|--4----------------------|--(4)---------------------|


  C5                          Ab5                           C5
   E  E  E  E  +E   E  E  E    E  E  E  E  S  S  S  S  Q      Q         Q         Q      
   Q
|----18------------15-------|-------11-13-15p13----13-18--|-----------------------------------------|
|-16----16-13-(13)----13-11-|--9-11-------------16--------|-----------------------------------------|
|---------------------------|-----------------------------|-[15]b17---------------------------------|
|---------------------------|-----------------------------|-----------[15]b17---[13]b15-------------|
|---------------------------|-----------------------------|-------------------------------[15]b18---|
|---------------------------|-----------------------------|-----------------------------------------|
|
|  E  E  E  E  +E   E  E  E    E  E  E  E  S  S  S  S  Q      Q         Q         Q      
   Q
|---------------------------|-------------------------15--|-----------------------------------------|
|----20------------16-------|-------13-15-16p15----15-----|-----------------------------------------|
|-17----17-13-(13)----13-12-|-10-12-------------17--------|-[15]b17---------------------------------|
|---------------------------|-----------------------------|-----------[15]b17---[13]b15-------------|
|---------------------------|-----------------------------|-------------------------------[15]b18---|
|---------------------------|-----------------------------|-----------------------------------------|
|
|                                                                   PM|           
PM----|         PM
|  W                           W                              E     E   E     E   E     E
  E     E
|---------------------------|-----------------------------|-----------------------------------------|
|---------------------------|-----------------------------|-----------------------------------------|
|--5------------------------|-----------------------------|-----------------------------------------|
|--5------------------------|--6--------------------------|---5---------------5-------------5-------|
|--3------------------------|--6--------------------------|---3-----3---3-----3---3-----3---3-----3-|
|---------------------------|--4--------------------------|-----------------------------------------|


  Eb5
   E     +E      +E      E     +E      +E      +E      +E
|-13b15r(13)b15r(13)b15r15b18r(15)b18r(15)b18r(15)b18r(15)b18--||
|--------------------------------------------------------------||
|--------------------------------------------------------------||
|--------------------------------------------------------------||
|--------------------------------------------------------------||
|--------------------------------------------------------------||
|
|  E     +E      +E      E     +E      +E      +E      +E
|-10b11r(10)b11r(10)b11r13b15r(13)b15r(13)b15r(13)b15r(13)b15--||
|--------------------------------------------------------------||
|--------------------------------------------------------------||
|--------------------------------------------------------------||
|--------------------------------------------------------------||
|--------------------------------------------------------------||
|
|  W
|--------------------------------------------------------------||
|--------------------------------------------------------------||
|--8-----------------------------------------------------------||
|--8-----------------------------------------------------------||
|--6-----------------------------------------------------------||
|--------------------------------------------------------------||


  F5
  Gtr II
                     |--3--|                    |--3--|
   S  S  S  S  S  S  S  S  S  S  S  S  S  S  S  S  S  S
|-20-16----------16-20-16----20-16----------16-20-16----|
|-------20-16-20----------20-------20-16-20----------20-|
|-------------------------------------------------------|
|-------------------------------------------------------|
|-------------------------------------------------------|
|-------------------------------------------------------|
|
| Gtr I
|  W
|-------------------------------------------------------|
|-------------------------------------------------------|
|-------------------------------------------------------|
|--3----------------------------------------------------|
|--3----------------------------------------------------|
|--1----------------------------------------------------|


                T        T        T
   S   S  S  S  S  S  S  S  S  S  S  S  E  E
|-20--16--------------------------------------|
|--------20-16--------------------------------|
|--------------19-17-15-----------------------|
|-----------------------18-15-13-15-18-17-15--|
|---------------------------------------------|
|---------------------------------------------|
|
| +W
|---------------------------------------------|
|---------------------------------------------|
|---------------------------------------------|
|-(3)-----------------------------------------|
|-(3)-----------------------------------------|
|-(1)-----------------------------------------|


  C5
   E  S  S  S  S  S  S  S  S  S  S  S  S  S  S
|-------------18-16-15-------------------------|
|----------16----------18-16-15----------------|
|-------15----------------------17-15-13-------|
|----17----------------------------------17-15-|
|-18-------------------------------------------|
|----------------------------------------------|
|
|  W
|----------------------------------------------|
|----------------------------------------------|
|--5-------------------------------------------|
|--5-------------------------------------------|
|--3-------------------------------------------|
|----------------------------------------------|


  Bb5
   S  S  S  S  S  S  S  S  S  S  S  S  S  S  E
|----------------------------------------------||
|----------------13-15-16-15-13----------13-15-||
|-------12-13-15----------------15-13-15-------||
|-13-15----------------------------------------||
|----------------------------------------------||
|----------------------------------------------||
|
|  W
|----------------------------------------------||
|----------------------------------------------||
|--3-------------------------------------------||
|--3-------------------------------------------||
|--1-------------------------------------------||
|----------------------------------------------||


 Guitar Solo
  Ab5
  Gtr II
                                    ~~~~
    Q.    Q    E. S  E    E   E E   Q    Q   E
|----------------------|-----13---[15]---------|
|-/16----16--[13]---13-|-16-------------16--15-|
|----------------------|-----------------------|
|----------------------|-----------------------|
|----------------------|-----------------------|
|----------------------|-----------------------|
|
| Gtr III
|                                   ~~~~
|   Q.    Q    E. S  E    E   E E   Q    Q   E
|----------------------|-----------------------|
|-/13----13------------|-13--15---[16]--13--11-|
|-------------13----13-|-----------------------|
|----------------------|-----------------------|
|----------------------|-----------------------|
|----------------------|-----------------------|
|
| Gtr I
|   W                    +W
|----------------------|-----------------------|
|----------------------|-----------------------|
|----------------------|-----------------------|
|---6------------------|-(6)-------------------|
|---6------------------|-(6)-------------------|
|---4------------------|-(4)-------------------|


  C5
                                                                       ~~~~~~~~
   S  S  S  S  S  S  S  S  S     +S.     +S.     +Q         E   E  E   E   +H
|--------------------------------------------------------|------------------------|
|-13p11--------------------------------------------------|------------------------|
|-------12----10h12p10----10b12r(10)b12r(10)b12r(10)b12r=|=10---8-12--[8]--(8)----|
|----------13----------13--------------------------------|------------------------|
|--------------------------------------------------------|------------------------|
|--------------------------------------------------------|------------------------|
|
|                                                                      ~~~~~~~~
|  S  S  S  S  S  S  S  S  S     +S.     +S.     +Q         E   E  E   E   +H
|--------------------------------------------------------|------------------------|
|--------------------------------------------------------|------------------------|
|-13p12-------------------13b15r(13)b15r(13)b15r(13)b15r=|========================|
|-------13-10-12h13p12-10--------------------------------|-12-----13-[10]-(10)----|
|--------------------------------------------------------|-----15-----------------|
|--------------------------------------------------------|------------------------|
|
|  W                                                       +W
|--------------------------------------------------------|------------------------|
|--------------------------------------------------------|------------------------|
|--5-----------------------------------------------------|-(5)--------------------|
|--5-----------------------------------------------------|-(5)--------------------|
|--3-----------------------------------------------------|-(3)--------------------|
|--------------------------------------------------------|------------------------|


  Bb5
                                                                         ~~~~
    E  E    E    E    E    E    E    E      E    E   E    E   E    E     Q
|-/15-15---11---15---15---11---15---11---|-15---16-------15-------11---[11]-------|
|----------------------------------------|----------------------------------------|
|----------------------------------------|----------------------------------------|
|----------------------------------------|----------------------------------------|
|----------------------------------------|----------------------------------------|
|----------------------------------------|----------------------------------------|
|
|   E  E    E    E    E    E    E    E      E    E   E    E   E    E     Q
|----------------------------------------|----------------------------------------|
|-/16-16---13---16---16---13---16---13---|-16---18-------16-------13---[13]-------|
|----------------------------------------|----------------------------------------|
|----------------------------------------|----------------------------------------|
|----------------------------------------|----------------------------------------|
|----------------------------------------|----------------------------------------|
|
|      PM-----------------------------------------------------------------------|
|   E  S S  S S  S S  S S  S S  S S  S S    S S  S S S S  S S S S  S S   S  S S S
|----------------------------------------|----------------------------------------|
|----------------------------------------|----------------------------------------|
|----------------------------------------|----------------------------------------|
|---3------------------------------------|----------------------------------------|
|---1--1-1--1-1--1-1--1-1--1-1--1-1--1-1-|--1-1--1-1-1-1--1-1-1-1--1-1---1--1-1-1-|
|----------------------------------------|----------------------------------------|


  G5                                                Ab5                     Bb5
                                                     T     T                 T     T
   S  S  S  S  S  S  S  S  S  S  S  S  S  S  S  S    S  S  S  S  S  S  S  S  S  S  S  S  S
 S  S  S
|-------------------------------------------------|-------------15-13-------------------18-15----------||
|-------------------------------------------------|-16-13-18-13-------16-13-18-15-20-15-------16-13----||
|-------------12-------12-13----12-13-15-12-13-15-|----------------------------------------------------||
|-------13-15----13-15-------15-------------------|----------------------------------------------------||
|-15-17-------------------------------------------|----------------------------------------------------||
|-------------------------------------------------|----------------------------------------------------||
|
|                                                    T     T                 T     T
|  S  S  S  S  S  S  S  S  S  S  S  S  S  S  S  S    S  S  S  S  S  S  S  S  S  S  S  S  S
 S  S  S
|-------------------------------------------------|----------------------------------------------------||
|-------------------------------------------------|-------------16-15-------------------20-16----------||
|-------------------------------------------------|-17-13-19-13-------17-13-19-15-19-15-------17-13----||
|-------------13-------13-15----13-15-17-13-15-17-|----------------------------------------------------||
|-------15-17----15-17-------17-------------------|----------------------------------------------------||
|-17-18-------------------------------------------|----------------------------------------------------||
|
|  W                                                 H                       H
|-------------------------------------------------|----------------------------------------------------||
|-------------------------------------------------|----------------------------------------------------||
|-------------------------------------------------|--------------------------3-------------------------||
|--5----------------------------------------------|--6-----------------------3-------------------------||
|--5----------------------------------------------|--6-----------------------1-------------------------||
|--3----------------------------------------------|--4-------------------------------------------------||


  Ab5
   S  S  S  S  S  S  S  S  S  S  S  S  S  S  S  S
|-------------------------------------------------|
|-------------------------------------------------|
|-20-20-------22-22-------24-24-------22-22-------|
|-------22-22-------22-22-------22-22-------22-22-|
|-------------------------------------------------|
|-------------------------------------------------|
|
|  S  S  S  S  S  S  S  S  S  S  S  S  S  S  S  S
|-------------------------------------------------|
|-------------------------------------------------|
|--8--8-------10-10-------12-12-------10-10-------|
|-------10-10-------10-10-------10-10-------10-10-|
|-------------------------------------------------|
|-------------------------------------------------|
|
|  W
|-------------------------------------------------|
|-------------------------------------------------|
|-------------------------------------------------|
|--6----------------------------------------------|
|--6----------------------------------------------|
|--4----------------------------------------------|


   T        T       T       T       T       T       T       T
   |--3--|  |-3--|  |-3--|  |-3--|  |-3--|  |-3--|  |-3--|  |-3--|
   S   S S  S  S S  S  S S  S  S S  S  S S  S  S S  S  S S  S  S S
|-16--11-8-16-11-8-16-11-8-16-11-8-16-11-8-16-11-8-16-11-8-16-11-8---|
|--------------------------------------------------------------------|
|--------------------------------------------------------------------|
|--------------------------------------------------------------------|
|--------------------------------------------------------------------|
|--------------------------------------------------------------------|
|
|  T        T       T       T       T       T       T       T
|  |--3--|  |-3--|  |-3--|  |-3--|  |-3--|  |-3--|  |-3--|  |-3--|
|  S   S S  S  S S  S  S S  S  S S  S  S S  S  S S  S  S S  S  S S
|--------------------------------------------------------------------|
|--------------------------------------------------------------------|
|-13---8-5-13--8-5-13--8-5-13--8-5-13--8-5-13--8-5-13--8-5-13--8-5---|
|--------------------------------------------------------------------|
|--------------------------------------------------------------------|
|--------------------------------------------------------------------|
|
| +W
|--------------------------------------------------------------------|
|--------------------------------------------------------------------|
|--------------------------------------------------------------------|
|-(6)----------------------------------------------------------------|
|-(6)----------------------------------------------------------------|
|-(4)----------------------------------------------------------------|


  C5
   S  S  S  S  S  S  S  S  S  S  S  S  S  S  S  S    S  S  S  S  S  S  S  S  S  S  S  S  
 Q
|----------11-13-15-13-11-13-11-------------------|--------------------------------------------|
|-13-11-13----------------------13-11----------11-|-13-13-11----11-11--------------------------|
|-------------------------------------12-10-12----|----------12-------12-12-10-12-10-----------|
|-------------------------------------------------|----------------------------------13-[13]---|
|-------------------------------------------------|--------------------------------------------|
|-------------------------------------------------|--------------------------------------------|
|
|  S  S  S  S  S  S  S  S  S  S  S  S  S  S  S  S    S  S  S  S  S  S  S  S  S  S  S  S  
 Q
|-------------------------------------------------|--------------------------------------------|
|----------13-15-16-15-13-15-13-------------------|--------------------------------------------|
|-13-12-13----------------------13-12----------12-|-13-13-12----12-12--------------------------|
|-------------------------------------13-12-13----|----------13-------13-13-12-13-12-----------|
|-------------------------------------------------|----------------------------------15-[15]---|
|-------------------------------------------------|--------------------------------------------|
|
|  PM                PM---|                  PM-----|                  PM---|            
    PM
|  E     Q           E     E     Q           E       E     Q           E     E     Q     
    E
|-------------------------------------------------|--------------------------------------------|
|-------------------------------------------------|--------------------------------------------|
|--------5-----------------------5----------------|--------5-----------------------5-----------|
|--------5-----------------------5----------------|--------5-----------------------5-----------|
|--3-----3-----------3-----3-----3-----------3----|--3-----3-----------3-----3-----3---------3-|
|-------------------------------------------------|--------------------------------------------|


  Bb5
                                                     ~~~~
    E  E  E  E E  Q   E     E.     +E.     E  E  E   Q
|-/11-10-11-10----------|---------------------------------|
|----------------11--11-|-[15]b17r(15)b17-----------------|
|-----------------------|-----------------12-10-----------|
|-----------------------|-----------------------13-[13]---|
|-----------------------|---------------------------------|
|-----------------------|---------------------------------|
|
|                                                    ~~~~
|   E  E  E  E E  Q   E     E.     +E.     E  E  E   Q
|-----------------------|---------------------------------|
|-/13-11-13-11----------|-[11]b13r(11)b13-----------------|
|----------------12--12-|---------------------------------|
|-----------------------|-----------------13-12-10-[10]---|
|-----------------------|---------------------------------|
|-----------------------|---------------------------------|
|
|   W                      +W
|-----------------------|---------------------------------|
|-----------------------|---------------------------------|
|---3-------------------|--(3)----------------------------|
|---3-------------------|--(3)----------------------------|
|---1-------------------|--(1)----------------------------|
|-----------------------|---------------------------------|


  C5
                           T  ~~ T  ~~ T  ~~ T  ~~
   S  S  S  S  S  S  S  S  S  S  S  S  S  S  S  S
|-------------------------------------------------|
|-------------------------------------------------|
|-------------12-13-15-17-17-12-17-12-17-12-17-12-|
|----12-13-15-------------------------------------|
|-15----------------------------------------------|
|-------------------------------------------------|
|
|                          T  ~~~~~    T  ~~~~~
|  S  S  S  S  S  S  S  S  S  S  S  S  S  S  S  S
|-------------------------------------------------|
|-------------------------------------------------|
|-------------------------------------------------|
|-------------13-15-17-18-18-13-18-13-18-13-18-13-|
|----13-15-17-------------------------------------|
|-15----------------------------------------------|
|
|  W
|-------------------------------------------------|
|-------------------------------------------------|
|--5----------------------------------------------|
|--5----------------------------------------------|
|--3----------------------------------------------|
|-------------------------------------------------|


   T         T        T        T        T        T        T        T
   |--3---|  |--3--|  |--3--|  |--3--|  |--3--|  |--3--|  |--3--|  |--3--|
   S   S  S  S  S  S  S  S  S  S  S  S  S  S  S  S  S  S  S  S  S  S  S  S
|-20--16-15-20-16-15-20-16-15-20-16-15-20-16-15-20-16-15-20-16-15-20-16-15---||
|----------------------------------------------------------------------------||
|----------------------------------------------------------------------------||
|----------------------------------------------------------------------------||
|----------------------------------------------------------------------------||
|----------------------------------------------------------------------------||
|
|  T         T        T        T        T        T        T        T
|  |--3---|  |--3--|  |--3--|  |--3--|  |--3--|  |--3--|  |--3--|  |--3--|
|  S   S  S  S  S  S  S  S  S  S  S  S  S  S  S  S  S  S  S  S  S  S  S  S
|----------------------------------------------------------------------------||
|----------------------------------------------------------------------------||
|-17--13-12-17-13-12-17-13-12-17-13-12-17-13-12-17-13-12-17-13-12-17-13-12---||
|----------------------------------------------------------------------------||
|----------------------------------------------------------------------------||
|----------------------------------------------------------------------------||
|
| +W
|----------------------------------------------------------------------------||
|----------------------------------------------------------------------------||
|-(5)------------------------------------------------------------------------||
|-(5)------------------------------------------------------------------------||
|-(3)------------------------------------------------------------------------||
|----------------------------------------------------------------------------||


   Interlude
                            Ab5
    Gtr I
    W          +W           W          +W
||-----------|------------|----------|--------|
||o----------|------------|----------|--------|
||--5--------|-(5)--------|----------|--------|
||--5--------|-(5)--------|-6--------|-(6)----|
||o-3--------|-(3)--------|-6--------|-(6)----|
||-----------|------------|-4--------|-(4)----|


                         1.
  Bb5                     Eb5
  W          +W           W          +W
|----------|------------|----------|---------||
|----------|------------|----------|--------o||
|-3--------|-(3)--------|-8--------|-(8)-----||
|-3--------|-(3)--------|-8--------|-(8)-----||
|-1--------|-(1)--------|-6--------|-(6)----o||
|----------|------------|----------|---------||


  2.
  G5
  Gtr II
    S   S  S   S    S   S  S   S    S   S  S   S    S   S  S  S
|-[15]-15s[3]-[3]-[15]-15s[3]-[3]-[15]-15s[3]-[3]-[15]-15s[3]-3s|
|---------------------------------------------------------------|
|---------------------------------------------------------------|
|---------------------------------------------------------------|
|---------------------------------------------------------------|
|---------------------------------------------------------------|
|
| Gtr III
|   W
|---------------------------------------------------------------|
|---------------------------------------------------------------|
|---------------------------------------------------------------|
|---------------------------------------------------------------|
|---------------------------------------------------------------|
|---------------------------------------------------------------|
|
| Gtr I
|   Q               H.
|---------------------------------------------------------------|
|---------------------------------------------------------------|
|---------------------------------------------------------------|
|---5-----------------------------------------------------------|
|---5-----------------------------------------------------------|
|---3-----------------------------------------------------------|


                                   Ab5
   H.                Q             W           W
|-15-----------------------------|----------|--------|
|--------------------------------|----------|--------|
|--------------------------------|----------|--------|
|--------------------------------|----------|--------|
|--------------------------------|----------|--------|
|--------------------------------|----------|--------|
|
|        TPTPTPTPTPTPTPTPTPTPTPTP
|        |-3-| |-3-| |-3-| |-3-|
|  H     S S S S S S S S S S S S   W           W
|--------------------------------|----------|--------|
|--------------------------------|----------|--------|
|--------xsxsxsxsxsxsxsxsxsxsxsx-|----------|--------|
|--------xsxsxsxsxsxsxsxsxsxsxsx-|----------|--------|
|--------------------------------|----------|--------|
|--------------------------------|----------|--------|
|
|  W                               W          +W
|--------------------------------|----------|--------|
|--------------------------------|----------|--------|
|--------------------------------|----------|--------|
|--------------------------------|-6--------|-(6)----|
|--------------------------------|-6--------|-(6)----|
|--------------------------------|-4--------|-(4)----|


  C5                      Bb5
  Gtr I
                            PM---------------------------
  W          +W           E S S S S S S S S S S S S S S
|----------|------------|-------------------------------|
|----------|------------|-------------------------------|
|-5--------|-(5)--------|-------------------------------|
|-5--------|-(5)--------|-3-----------------------------|
|-3--------|-(3)--------|-1-1-1-1-1-1-1-1-1-1-1-1-1-1-1-|
|----------|------------|-------------------------------|


 -------------------------------|
  S S S S S S S S S S S S S S S S
|------------------------------------|
|------------------------------------|
|------------------------------------|
|------------------------------------|
|-1-1-1-1-1-1-1-1-1-1-1-1-1-1-1-1----|
|------------------------------------|


  G5                      Ab5
  W          +W           W          +W
|----------|------------|----------|------------|
|----------|------------|----------|------------|
|----------|------------|----------|------------|
|-5--------|-(5)--------|-6--------|-(6)--------|
|-5--------|-(5)--------|-6--------|-(6)--------|
|-3--------|-(3)--------|-4--------|-(4)--------|


  C5                      Bb5        Bb5
  W          +W           W          Q  H.
|----------|------------|----------|----------||
|----------|------------|----------|----------||
|-5--------|-(5)--------|-3--------|-3--------||
|-5--------|-(5)--------|-3--------|-3--------||
|-3--------|-(3)--------|-1--------|-1--------||
|----------|------------|----------|----------||


   Re-Intro
    C5
    Gtr II
     S  S  S  S S S  S  S  S  S S S  S  S S S
||--11-11-11-11-8-8-11-11-11-11-8-8-11-11-8-8-|
||o-------------------------------------------|
||--------------------------------------------|
||--------------------------------------------|
||o-------------------------------------------|
||--------------------------------------------|
|
|   Gtr III
|    S  S  S  S S S  S  S  S  S S S  S  S S S
||--------------------------------------------|
||o-13-13-13-13-8-8-13-13-13-13-8-8-13-13-8-8-|
||--------------------------------------------|
||--------------------------------------------|
||o-------------------------------------------|
||--------------------------------------------|
|
|   Gtr I
|          PM----------------------------------
|    E     S  S S S  S  S  S  S S S  S  S S S
||--------------------------------------------|
||o-------------------------------------------|
||--------------------------------------------|
||---5----------------------------------------|
||o--3-----3--3-3-3--3--3--3--3-3-3--3--3-3-3-|
||--------------------------------------------|


   S  S  S  S S S  S  S  S  S S S  S  S S S
|-11-11-11-11-8-8-11-11-11-11-8-8-11-11-8-8-|
|-------------------------------------------|
|-------------------------------------------|
|-------------------------------------------|
|-------------------------------------------|
|-------------------------------------------|
|
|  S  S  S  S S S  S  S  S  S S S  S  S S S
|-------------------------------------------|
|-13-13-13-13-8-8-13-13-13-13-8-8-13-13-8-8-|
|-------------------------------------------|
|-------------------------------------------|
|-------------------------------------------|
|-------------------------------------------|
|
|-----------------------------------------|
|  S  S  S  S S S  S  S  S  S S S  S  S S S
|-------------------------------------------|
|-------------------------------------------|
|-------------------------------------------|
|-------------------------------------------|
|--3--3--3--3-3-3--3--3--3--3-3-3--3--3-3-3-|
|-------------------------------------------|


  Ab5
   S  S  S  S  S  S  S  S  S  S  S  S  S  S  S  S
|-15-15-15-15-11-11-15-15-15-15-11-11-15-15-11-11-|
|-------------------------------------------------|
|-------------------------------------------------|
|-------------------------------------------------|
|-------------------------------------------------|
|-------------------------------------------------|
|
|  S  S  S  S  S  S  S  S  S  S  S  S  S  S  S  S
|-------------------------------------------------|
|-16-16-16-16-13-13-16-16-16-16-13-13-16-16-13-13-|
|-------------------------------------------------|
|-------------------------------------------------|
|-------------------------------------------------|
|-------------------------------------------------|
|
|        PM----------------------------------------
|  E     S  S  S  S  S  S  S  S  S  S  S  S  S  S
|-------------------------------------------------|
|-------------------------------------------------|
|-------------------------------------------------|
|-------------------------------------------------|
|--6----------------------------------------------|
|--4-----4--4--4--4--4--4--4--4--4--4--4--4--4--4-|


   S  S  S  S  S  S  S  S  S  S  S  S  S  S  S  S
|-15-15-15-15-11-11-15-15-15-15-11-11-15-15-11-11--|
|--------------------------------------------------|
|--------------------------------------------------|
|--------------------------------------------------|
|--------------------------------------------------|
|--------------------------------------------------|
|
|  S  S  S  S  S  S  S  S  S  S  S  S  S  S  S  S
|--------------------------------------------------|
|-16-16-16-16-13-13-16-16-16-16-13-13-16-16-13-13--|
|--------------------------------------------------|
|--------------------------------------------------|
|--------------------------------------------------|
|--------------------------------------------------|
|
|----------------------------------------------|
|  S  S  S  S  S  S  S  S  S  S  S  S  S  S  S  S
|--------------------------------------------------|
|--------------------------------------------------|
|--------------------------------------------------|
|--------------------------------------------------|
|--------------------------------------------------|
|--4--4--4--4--4--4--4--4--4--4--4--4--4--4--4--4--|


  F5
   S  S  S  S S S  S  S  S  S S S  S  S S S
|-13-13-13-13-8-8-13-13-13-13-8-8-13-13-8-8-|
|-------------------------------------------|
|-------------------------------------------|
|-------------------------------------------|
|-------------------------------------------|
|-------------------------------------------|
|
|  S  S  S  S S S  S  S  S  S S S  S  S S S
|-------------------------------------------|
|-13-13-13-13-9-9-13-13-13-13-9-9-13-13-9-9-|
|-------------------------------------------|
|-------------------------------------------|
|-------------------------------------------|
|-------------------------------------------|
|
|        PM----------------------------------
|  E     S  S S S  S  S  S  S S S  S  S S S
|-------------------------------------------|
|-------------------------------------------|
|-------------------------------------------|
|-------------------------------------------|
|--3----------------------------------------|
|--1-----1--1-1-1--1--1--1--1-1-1--1--1-1-1-|


   S  S  S  S S S  S  S  S  S S S  S  S S S
|-13-13-13-13-8-8-13-13-13-13-8-8-13-13-8-8--|
|--------------------------------------------|
|--------------------------------------------|
|--------------------------------------------|
|--------------------------------------------|
|--------------------------------------------|
|
|  S  S  S  S S S  S  S  S  S S S  S  S S S
|--------------------------------------------|
|-13-13-13-13-9-9-13-13-13-13-9-9-13-13-9-9--|
|--------------------------------------------|
|--------------------------------------------|
|--------------------------------------------|
|--------------------------------------------|
|
|-----------------------------------------|
|  S  S  S  S S S  S  S  S  S S S  S  S S S
|--------------------------------------------|
|--------------------------------------------|
|--------------------------------------------|
|--------------------------------------------|
|--------------------------------------------|
|--1--1--1--1-1-1--1--1--1--1-1-1--1--1-1-1--|


  1.
  Ab5
   S  S  S  S S S  S  S  S  S S S  S  S S S
|-11-11-11-11-8-8-11-11-11-11-8-8-11-11-8-8-|
|-------------------------------------------|
|-------------------------------------------|
|-------------------------------------------|
|-------------------------------------------|
|-------------------------------------------|
|
|  S  S  S  S S S  S  S  S  S S S  S  S S S
|-------------------------------------------|
|-13-13-13-13-8-8-13-13-13-13-8-8-13-13-8-8-|
|-------------------------------------------|
|-------------------------------------------|
|-------------------------------------------|
|-------------------------------------------|
|
|        PM----------------------------------
|  E     S  S S S  S  S  S  S S S  S  S S S
|-------------------------------------------|
|-------------------------------------------|
|-------------------------------------------|
|-------------------------------------------|
|--6----------------------------------------|
|--4-----4--4-4-4--4--4--4--4-4-4--4--4-4-4-|


  S  S  S S  S S  S S  S  S  S S  S S  S S
|--------------------------------------------||
|-------------------------------------------o||
|---------8----8-10-8-10-12-10-8-10-8--------||
|-8-10-12---12------------------------10-8---||
|-------------------------------------------o||
|--------------------------------------------||
|
| S  S  S S  S S  S S  S  S  S S  S S  S S
|-------------------------6------------------||
|---------8----8--9-8--9-----9-8--9-8-------o||
|-7--8-10---10-------------------------8-7---||
|--------------------------------------------||
|-------------------------------------------o||
|--------------------------------------------||
|
|----------------------------------------|
| S  S  S S  S S  S S  S  S  S S  S S  S S
|--------------------------------------------||
|-------------------------------------------o||
|--------------------------------------------||
|--------------------------------------------||
|-------------------------------------------o||
|-4--4--4-4--4-4--4-4--4--4--4-4--4-4--4-4---||


  2.
  N.C.
               |--3--|
   S  S  S  S  S  S  S  S  S  S  S  S  S  S  S  S  S
|-------------15h16p15-------------------------------|
|----------16----------16----16----------------------|
|-------17----------------17----17----17-------------|
|----17----------------------------17----17----17----|
|-18----------------------------------------18----18-|
|----------------------------------------------------|
|
|  W
|----------------------------------------------------|
|----------------------------------------------------|
|----------------------------------------------------|
|----------------------------------------------------|
|----------------------------------------------------|
|----------------------------------------------------|
|
|  W
|----------------------------------------------------|
|----------------------------------------------------|
|----------------------------------------------------|
|----------------------------------------------------|
|----------------------------------------------------|
|----------------------------------------------------|


                           |--3--|  |--3--|  |--3--|
   S  S  S  S  S  S  S  S  S  S  S  S  S  S  S  S  S  S  S
|-------------------15----16p15----16p15----16p15----16p15--||
|-------------16-------16-------16-------16-------16--------||
|----------17----17-----------------------------------------||
|-------17--------------------------------------------------||
|-15-18-----------------------------------------------------||
|-----------------------------------------------------------||
|
|  W
|-----------------------------------------------------------||
|-----------------------------------------------------------||
|-----------------------------------------------------------||
|-----------------------------------------------------------||
|-----------------------------------------------------------||
|-----------------------------------------------------------||
|
|  W
|-----------------------------------------------------------||
|-----------------------------------------------------------||
|-----------------------------------------------------------||
|-----------------------------------------------------------||
|-----------------------------------------------------------||
|-----------------------------------------------------------||


 Outro
  C5
   PM------------------------------------------------
   E  E  E  E  E  E  E  E    E  E  E  E  E  E  E  E
|-15-18-18-15-18-18-15-18-|-18-15-15-18-18-15-------|
|-------------------------|-------------------18-16-|
|-------------------------|-------------------------|
|-------------------------|-------------------------|
|-------------------------|-------------------------|
|-------------------------|-------------------------|
|
|  PM------------------------------------------------
|  E  E  E  E  E  E  E  E    E  E  E  E  E  E  E  E
|-------------------------|-------------------------|
|-------------------------|-------------------------|
|-12-15-15-12-15-15-12-15-|-15-12-12-15-15-12-------|
|-------------------------|-------------------15-13-|
|-10-13-13-10-13-13-10-13-|-13-10-10-13-13-10-------|
|-------------------------|-------------------13-11-|
|
|  E  E  E  E  E  E  E  E    E  E  E  E  E  E  E  E
|-------------------------|-------------------------|
|-------------------------|-------------------------|
|--5--5--5--5-----5-----5-|-----5-----5--5--5--5----|
|--5--5--5--5-----5-----5-|-----5-----5--5--5--5----|
|--3--3--3--3-----3-----3-|-----3-----3--3--3--3----|
|-------------------------|-------------------------|


  Eb5
 ------------------------------------------------|
   E  E  E  E  E  E  E  E    E  E  E  E  E  E  E  E
|-13-15-15-13-15-15-13-15-|-15-13-15-15-16-15-13-----|
|-------------------------|----------------------16--|
|-------------------------|--------------------------|
|-------------------------|--------------------------|
|-------------------------|--------------------------|
|-------------------------|--------------------------|
|
|------------------------------------------------|
|  E  E  E  E  E  E  E  E    E  E  E  E  E  E  E  E
|-------------------------|--------------------------|
|-------------------------|--------------------------|
|-10-12-12-10-12-12-10-12-|-12-10-12-12-13-12--------|
|-------------------------|-------------------15-13--|
|--8-10-10--8-10-10--8-10-|-10--8-10-10-11-10--------|
|-------------------------|-------------------13-11--|
|
|  E  E  E  E  E  E  E  E    E  E  E  E  E  E  E  E
|-------------------------|--------------------------|
|-------------------------|--------------------------|
|--8--8--8--8-----8-----8-|-----8-----8--8--8--8-----|
|--8--8--8--8-----8-----8-|-----8-----8--8--8--8-----|
|--6--6--6--6-----6-----6-|-----6-----6--6--6--6-----|
|-------------------------|--------------------------|


  F5                                             G5
   E  E  E  E E  E E  E   E  E E  E  E  E  E E    S  S  S  S  S  S  S  S  S  S  S  S  S  S
 S  S
|-13-13-13-13---13---13-|---13---13-13-13-13---|-18p15h18p15h18p15h18p15h18p15h18p15h18p15h18p15-|
|-----------------------|----------------------|-------------------------------------------------|
|-----------------------|----------------------|-------------------------------------------------|
|-----------------------|----------------------|-------------------------------------------------|
|-----------------------|----------------------|-------------------------------------------------|
|-----------------------|----------------------|-------------------------------------------------|
|
|  E  E  E  E E  E E  E   E  E E  E  E  E  E E    S  S  S  S  S  S  S  S  S  S  S  S  S  S
 S  S
|-----------------------|----------------------|-------------------------------------------------|
|-----------------------|----------------------|-------------------------------------------------|
|-----------------------|----------------------|-15p12h15p12h15p12h15p12h15p12h15p12h15p12h15p12-|
|-----------------------|----------------------|-------------------------------------------------|
|-15-15-15-15---15---15-|---15---15-15-15-15---|-------------------------------------------------|
|-----------------------|----------------------|-------------------------------------------------|
|
|  E  E  E  E E  E E  E   E  E E  E  E  E  E E    W
|-----------------------|----------------------|-------------------------------------------------|
|-----------------------|----------------------|-------------------------------------------------|
|-----------------------|----------------------|-------------------------------------------------|
|--3--3--3--3----3----3-|----3----3--3--3--3---|--5----------------------------------------------|
|--3--3--3--3----3----3-|----3----3--3--3--3---|--5----------------------------------------------|
|--1--1--1--1----1----1-|----1----1--1--1--1---|--3----------------------------------------------|


   S   S  S  S  S  S  S  S  S  S  S  S  S  S  S  S
|-18p=15h18p15h18p15h18p15h18p15h18p15h18p15h18p15---|
|----------------------------------------------------|
|----------------------------------------------------|
|----------------------------------------------------|
|----------------------------------------------------|
|----------------------------------------------------|
|
|  S   S  S  S  S  S  S  S  S  S  S  S  S  S  S  S
|----------------------------------------------------|
|----------------------------------------------------|
|-15p=12h15p12h15p12h15p12h15p12h15p12h15p12h15p12---|
|----------------------------------------------------|
|----------------------------------------------------|
|----------------------------------------------------|
|
| +W
|----------------------------------------------------|
|----------------------------------------------------|
|----------------------------------------------------|
|-(5)------------------------------------------------|
|-(5)------------------------------------------------|
|-(3)------------------------------------------------|


   S   S  S  S  S  S  S  S  S  S  S  S  S  S  S  S    S   S  S  S  S  S  S  S  S  S  S  S
 S  S  S  S
|-18p=15h18p15h18p15h18p15h18p15h18p15h18p15h18p15-|-18p=15h18p15h18p15h18p15h18p15h18p15h18p15h18p15-|
|--------------------------------------------------|--------------------------------------------------|
|--------------------------------------------------|--------------------------------------------------|
|--------------------------------------------------|--------------------------------------------------|
|--------------------------------------------------|--------------------------------------------------|
|--------------------------------------------------|--------------------------------------------------|
|
|  S   S  S  S  S  S  S  S  S  S  S  S  S  S  S  S    S   S  S  S  S  S  S  S  S  S  S  S
 S  S  S  S
|--------------------------------------------------|--------------------------------------------------|
|--------------------------------------------------|--------------------------------------------------|
|-15p=12h15p12h15p12h15p12h15p12h15p12h15p12h15p12-|-15p=12h15p12h15p12h15p12h15p12h15p12h15p12h15p12-|
|--------------------------------------------------|--------------------------------------------------|
|--------------------------------------------------|--------------------------------------------------|
|--------------------------------------------------|--------------------------------------------------|
|
| +W                                                 +W
|--------------------------------------------------|--------------------------------------------------|
|--------------------------------------------------|--------------------------------------------------|
|--------------------------------------------------|--------------------------------------------------|
|-(5)----------------------------------------------|-(5)----------------------------------------------|
|-(5)----------------------------------------------|-(5)----------------------------------------------|
|-(3)----------------------------------------------|-(3)----------------------------------------------|


   S   S  S  S  S  S  S  S  S  S  S  S  S  S  S  S    S   S  S  S  S  S  S  S  S  S  S  S
 S  S  S  S
|-18p=15h18p15h18p15h18p15h18p15h18p15h18p15h18p15-|-18p=15h18p15h18p15h18p15h18p15h18p15h18p15h18p15---||
|--------------------------------------------------|----------------------------------------------------||
|--------------------------------------------------|----------------------------------------------------||
|--------------------------------------------------|----------------------------------------------------||
|--------------------------------------------------|----------------------------------------------------||
|--------------------------------------------------|----------------------------------------------------||
|
|  S   S  S  S  S  S  S  S  S  S  S  S  S  S  S  S    S   S  S  S  S  S  S  S  S  S  S  S
 S  S  S  S
|--------------------------------------------------|----------------------------------------------------||
|--------------------------------------------------|----------------------------------------------------||
|-15p=12h15p12h15p12h15p12h15p12h15p12h15p12h15p12-|-15p=12h15p12h15p12h15p12h15p12h15p12h15p12h15p12---||
|--------------------------------------------------|----------------------------------------------------||
|--------------------------------------------------|----------------------------------------------------||
|--------------------------------------------------|----------------------------------------------------||
|
| +W                                                 +W
|--------------------------------------------------|----------------------------------------------------||
|--------------------------------------------------|----------------------------------------------------||
|--------------------------------------------------|----------------------------------------------------||
|-(5)----------------------------------------------|-(5)------------------------------------------------||
|-(5)----------------------------------------------|-(5)------------------------------------------------||
|-(3)----------------------------------------------|-(3)------------------------------------------------||


   PM------------------|
   E  E  E  E  E  E  E  E     Q..        +S  H
|-16-15-13----15-13-------|-[15]b19-----(15)----------|
|----------16-------16-15-|---------------------------|
|-13-12-10----12-10-------|------------------7pb12r===|
|----------13-------13-12-|---------------------------|
|-------------------------|---------------------------|
|-------------------------|---------------------------|
|
|  PM------------------|
|  E  E  E  E  E  E  E  E     Q..        +S  H
|-13----------------------|---------------------------|
|----16-15-13-16-15-13----|--16b20------(16)----------|
|----------------------15-|---------------------------|
|-------------------------|------------------8pb10r===|
|-------------------------|---------------------------|
|-------------------------|---------------------------|
|
|  E  E  E  E  E  E  E  E     Q      H.
|-------------------------|---------------------------|
|-------------------------|---------------------------|
|-------------------------|---------------------------|
|-------------------------|---5-----------------------|
|--5--5--5--5--5--5--5--5-|---5-----------------------|
|--3--3--3--3--3--3--3--3-|---3-----------------------|


  C5
                                ~~~~
                    |--3--|
   S  S  E    E  E  Q  Q  Q     Q.   E H
|-11h13p11------------------|---------------*|
|------------13-11----11-13-|-[13]----------*|
|------------------12-------|---------------*|
|---------------------------|---------------*|
|---------------------------|---------------*|
|---------------------------|---------------*|
|
|                               ~~~~
|                   |--3--|
|  S  S  E    E  E  Q  Q  Q     Q.   E H
|---------------------------|---------------*|
|-13h15p13------------------|---------------*|
|------------13-12----12-13-|-[12]----------*|
|------------------13-------|---------------*|
|---------------------------|---------------*|
|---------------------------|---------------*|
|
|                   |--3--|
|  S  S  S S  Q     Q  Q  Q     Q.   E H
|---------------------------|---------------*|
|---------------------------|---------------*|
|-------------------5--5--5-|---5\----------*|
|--5--5--5-5--5-----5--5--5-|---5\----------*|
|--3--3--3-3--3-----3--3--3-|---3\----------*|
|---------------------------|---------------*|


Duration Legend
---------------
W - whole; H - half; Q - quarter; E - 8th; S - 16th; T - 32nd; X - 64th; a - acciaccatura
+ - note tied to previous; . - note dotted; .. - note double dotted
Uncapitalized letters represent notes that are staccato (1/2 duration)
Irregular groupings are notated above the duration line
Duration letters will always appear directly above the note/fret number it represents the
duration for.  Duration letters with no fret number below them represent rests.  Multi-
bar rests are notated in the form Wxn, where n is the number of bars to rest for.  Low
melody durations appear below the staff

Tablature Legend
----------------
 h   - hammer-on
 p   - pull-off
 b   - bend
 pb  - pre-bend
 r   - bend release (if no number after the r, then release immediately)
 /\  - slide into or out of (from/to "nowhere")
 s   - legato slide
 S   - shift slide
  - natural harmonic
[n]  - artificial harmonic
n(n) - tapped harmonic
 ~   - vibrato
 tr  - trill
 T   - tap
 TP  - trem. picking
 PM  - palm muting
\n/  - tremolo bar dip; n = amount to dip
 \n  - tremolo bar down
 n/  - tremolo bar up
/n\  - tremolo bar inverted dip
 =   - hold bend; also acts as connecting device for hammers/pulls
 <>  - volume swell (louder/softer)
 x   - on rhythm slash represents muted slash
 o   - on rhythm slash represents single note slash

Misc Legend
-----------
 |  - bar
||  - double bar
||o - repeat start
o|| - repeat end
*|  - double bar (ending)
 :  - bar (freetime)
 $  - Segno
 &  - Coda
Tempo markers -  = BPM(8/16=s8/s16), where s8 = swing 8ths, s16 = swing 16ths


***************************************************************************************
* Generated using Power Tab Editor by Brad Larsen - http://powertab.guitarnetwork.org *
***************************************************************************************
Suggest correction
Creating personal tab
Creating personal tab
You can edit any tab online and save it as your Personal.

You can edit, replace or remove any tab part or add personal notes – all changes will be seen only by you.

Personal tabs can be accessed anytime from any device, even offline.
Learn more »
comments
print report bad tab
30 comments total. Showing first comments.
0 reply
XxGibsonSGxX 300 Nov 19, 2007 02:58 PM

do you need a baritone guitar to play dragonforce songs? because I'm pretty sure it's hard to play the 28th fret on most
guitars unless it's baritone

looks good though

0 reply
XxGibsonSGxX 300 Nov 19, 2007 02:58 PM

do you need a baritone guitar to play dragonforce songs? because I'm pretty sure it's hard to play the 28th fret on most
guitars unless it's baritone

looks good though

0 reply
St.Jimmy13 37 Nov 22, 2007 05:53 AM

that parts just a keyboard so dont really worry about it. wat i did though, was i read the keyboard parts and figured
out the notes on the guitar and just apply them to a keyboard so if u want to try that it works really well if u know
the notes on a keyboard

guest
You may want to rate the tab now too:
select rating
Wanna post a correction for this tab? Suggest correction