Oops, an error
Loading. Please wait.
We have an official Through The Fire And Flames tab made by UG professional guitarists. Check out the tab »
×
1,977 views 6 this week
no commentswrite comment
1 2 3 4 5
x 3
add to favorites
×
Save as Personal and add changes to this tab that will be seen only by you. Learn more ›
×
You can save this tab as Personal to edit and correct it or add notes. All changes will be seen only by you. Learn more »
launch autoscroll
font size
0
reset
how to read this tab
guitar tuner
backing track
0:00
0:00
edit
Autoscroll
slow
fast
+/-
esc
set tempo
stop
Author
-------------------------------------------------------------------------------
                 Through the fire and the flames - Dragonforce
-------------------------------------------------------------------------------
Tabbed by:FASM
E-mail:leonardobojorquez@yahoo.com

Tuning:EADGBE

This is my first tabb so if it is not all accurate i appologize.

[Piano Intro for guitar]

e|---------------------------------------------------------------------------|
B|---------------------------------------------------------------------------|
G|5-7-8-5-7-8-10-8-12-8-10-7-8-7-8-5-x4--------------------------------------|
D|---------------------------------------------------------------------------|
A|---------------------------------------------------------------------------|
E|---------------------------------------------------------------------------|
If you get it up to speed then you might want to try it with an open note after every note.

This next part im not sure if its all correct but it fits.
[Guitar]

e|11-11-8-11-11-8-11-8-x2--15-15-11-15-15-11-15-11-x2------------------------|
B|---------------------------------------------------------------------------|
G|---------------------------------------------------------------------------|
D|---------------------------------------------------------------------------|
A|---------------------------------------------------------------------------|
E|---------------------------------------------------------------------------|

e|13-13-8-13-13-8-13-8-x2--11-11-8-11-11-8-11-8-8-10-11-13-10-11-13-15--5*-------|
B|-------------------------------------------------------------------------------|
G|-------------------------------------------------------------------------------|
D|-------------------------------------------------------------------------------|
A|-------------------------------------------------------------------------------|
E|-------------------------------------------------------------------------------|
you play that pinch harmonic at the end once you repeat the tremolo picking again an 
move your whammy up nd down very fast.

the rythem guitar is playing this:

E|-------------------------------------------|
A|-------------------------------------------|
D|5------------------------------------------|
G|5------------6---------------8-------------|
B|33333333333--6---------------8-------------|
E--------------44444444444-----666666666666--|


Please comment.
leonardobojorquez@yahoo.com

            
            
Suggest correction
Creating personal tab
Creating personal tab
You can edit any tab online and save it as your Personal.

You can edit, replace or remove any tab part or add personal notes – all changes will be seen only by you.

Personal tabs can be accessed anytime from any device, even offline.
Learn more »
Give kudos to tab author, rate the tab!
1 2 3 4 5
comments
print report bad tab
guest
You may want to rate the tab now too:
select rating
Wanna post a correction for this tab? Suggest correction