Oops, an error
Loading. Please wait.

Valley Of The Damned Bass

version 1
version 1

Whole song

3,828 views 1 this week
4 commentsread comments
1 2 3 4 5
1 last vote to show rating
add to favorites
launch autoscroll
font size
0
reset
guitar tuner
backing track
0:00
0:00
×
Best way to learn
"Valley Of The Damned"
Autoscroll
slow
fast
+/-
esc
set tempo
stop
Author
New artist to UG, amazing band. This is not tabbed myself but slightly reviewed
by me. DragonForce makes amazing music www.dragonforce.com is their home page.

                   
DragonForce - Valley of the Damned
An awesome masterpiece of power metal. The bassline is probably correct
i'm not very musical so be kind :)
Tabbed by Jamie Miller
kwitzatz_haderach@hotmail.com
Written by DragonForce (The best Power Metal band EVER)


     w     w     w     h  h                                             
||------|-----|-----|---------||----------------------------------------
||*-----|-----|-----|--------*||----------------------------------------
||*-----|-----|--5--|--3--2--*||----------------------------------------
||---0--|--3--|-----|---------||----------------------------------------
     Introduction                                                       

           t        t        t        t                                 
||---------------------------------------|------------------------------
||*--------------------------------------|------------------------------
||*--------------------------------------|------------------------------
||---x--x--0--x--x--0--x--x--0--x--x--0--|------------------------------
     Part I                                                             

      t        t        t        t                                      
------------------------------------|-----------------------------------
------------------------------------|-----------------------------------
------------------------------------|-----------------------------------
x--x--3--x--x--3--x--x--3--x--x--3--|-----------------------------------
                                                                        

      t        t        t        t                                      
------------------------------------|-----------------------------------
------------------------------------|-----------------------------------
x--x--5--x--x--5--x--x--5--x--x--5--|-----------------------------------
------------------------------------|-----------------------------------
                                                                        

      t        t        t        t                                      
-------------------------------------||--||--------------|--------------
------------------------------------*||--||--------------|--------------
x--x--3--x--x--3--x--x--2--x--x--2--*||--||--------------|--------------
-------------------------------------||--||--0--x--x--x--|--------------
                                             Verse 1 -  very            

                                                                        
------------|--------------|--------------|--------------|--------------
------------|--------------|--------------|--------------|--------------
------------|--5--x--x--x--|--x--x--x--x--|--3--x--x--x--|--------------
x--x--x--x--|--------------|--------------|--------------|--------------
                                                                        

                     t        t        t        t                       
------------|--------------------------------------|--------------------
------------|--------------------------------------|--------------------
5--x--x--x--|--------------------------------------|--------------------
------------|--x--x--0--x--x--0--x--x--0--x--x--0--|--------------------
                                                                        

      t        t        t        t                                      
------------------------------------|-----------------------------------
------------------------------------|-----------------------------------
------------------------------------|-----------------------------------
x--x--0--x--x--0--x--x--0--x--x--0--|-----------------------------------
                                                                        

      t        t        t        t                                      
------------------------------------|-----------------------------------
------------------------------------|-----------------------------------
x--x--5--x--x--5--x--x--5--x--x--5--|-----------------------------------
------------------------------------|-----------------------------------
                                                                        

   t        t        t        t                                         
---------------------------------|--------------------------------------
---------------------------------|--------------------------------------
x--3--x--x--3--x--x--5--x--x--5--|--------------------------------------
---------------------------------|--------------------------------------
                                                                        

s  s  s  s  s  s  s  s  s  s  s  s  s  s  s  s                          
------------------------------------------------|-----------------------
------------------------------------------------|-----------------------
------------------------------------------------|-----------------------
0--0--0--0--0--0--0--0--0--0--0--0--0--0--0--0--|-----------------------
                                                                        

s  s  s  s  s  s  s  s  s  s  s  s  s  s  s  s                          
------------------------------------------------|-----------------------
------------------------------------------------|-----------------------
------------------------------------------------|-----------------------
0--0--0--0--0--0--0--0--0--0--0--0--0--0--0--0--|-----------------------
                                                                        

s  s  s  s  s  s  s  s     s  s  s  s  s  s  s  s      q  q  h          
------------------------|--------------------------||-----------|-------
------------------------|--------------------------||-----------|-------
5--5--5--5--5--5--5--5--|--3--3--3--3--5--5--5--5--||--0--3-----|-------
------------------------|--------------------------||--------0--|-------
                                                       Pre Chorus       

q  q  h      s  s  s  s  s  s  s  s  s  s  s  s  s  s  s  s             
---------||--------------------------------------------------|----------
---------||--------------------------------------------------|----------
0--3--2--||--------------------------------------------------|----------
---------||--0--0--0--0--0--0--0--0--0--0--0--0--0--0--0--0--|----------
             Chorus                                                     

s  s  s  s  s  s  s  s  s  s  s  s  s  s  s  s                          
------------------------------------------------|-----------------------
------------------------------------------------|-----------------------
------------------------------------------------|-----------------------
3--3--3--3--3--3--3--3--3--3--3--3--3--3--3--3--|-----------------------
                                                                        

s  s  s  s  s  s  s  s  s  s  s  s  s  s  s  s                          
------------------------------------------------|-----------------------
------------------------------------------------|-----------------------
5--5--5--5--5--5--5--5--5--5--5--5--5--5--5--5--|-----------------------
------------------------------------------------|-----------------------
                                                                        

s  s  s  s  s  s  s  s  s  s  s  s  s  s  s  s      h  h     h  h       
------------------------------------------------||--------|--------|----
------------------------------------------------||--------|--------|----
3--3--3--3--3--3--3--3--3--3--3--3--3--3--3--3--||-----5--|-----2--|----
------------------------------------------------||--3-----|--0-----|----
                                                    Verse II            

h  h     h  h                                                           
------|--------||--||-----------------|-------------|-------------|-----
------|--------||--||*----------------|-------------|-------------|-----
3-----|--3--5--||--||*----------------|-------------|-------------|-----
---3--|--------||--||----\0--x--x--7--|\0--x--x--7--|\0--x--x--7--|-----
Pref. Low C                Solo                                         

                                                                        
-------------|--------------|-------------|-------------|---------------
-3-----------|--------------|-------------|-------------|---------------
-4--x--x--x--|--5--x--x-----|-------------|-------------|---------------
\------------|-----------7--|\0--x--x--7--|\0--x--x--7--|\0-------------
                                                                        

                                                                        
-------------|-------------|--------------|-----------------------------
-------------|-3-----------|--------------|-----------------------------
-------------|-4--x--x--x--|--5--x--x--x--|-----------------------------
\0--x--x--7--|\------------|--------------|-----------------------------
                                                                        

s  s  s  s  s  s  s  s  s  s  s  s q                                    
--------------------------------------|---------------------------------
--------------------------------------|---------------------------------
---------------------------------5h7--|---------------------------------
0--0--0--0--0--0--0--0--0--0--0-------|---------------------------------
                                                                        

s  s  s  s  s  s  s  s  s  s  s  s q                                    
--------------------------------------|---------------------------------
--------------------------------------|---------------------------------
---------------------------------5h7--|---------------------------------
0--0--0--0--0--0--0--0--0--0--0-------|---------------------------------
                                                                        

s  s  s  s  s  s  s  s  s  s  s  s q                                    
--------------------------------------|---------------------------------
--------------------------------------|---------------------------------
---------------------------------5h7--|---------------------------------
0--0--0--0--0--0--0--0--0--0--0-------|---------------------------------
                                                                        

s  s  s  s  s  s  s  s  s  s  s  s  s  s  s  s                          
------------------------------------------------|-----------------------
------------------------------------------------|-----------------------
3--3--3--3--3--3--3--3--5--5--5--5--5--5--5--5--|-----------------------
------------------------------------------------|-----------------------
                                                                        

s  s  s  s  s  s  s  s  s  s  s  s q                                    
--------------------------------------|---------------------------------
--------------------------------------|---------------------------------
---------------------------------5h7--|---------------------------------
0--0--0--0--0--0--0--0--0--0--0-------|---------------------------------
                                                                        

s  s  s  s  s  s  s  s  s  s  s  s q                                    
--------------------------------------|---------------------------------
--------------------------------------|---------------------------------
---------------------------------5h7--|---------------------------------
0--0--0--0--0--0--0--0--0--0--0-------|---------------------------------
                                                                        

s  s  s  s  s  s  s  s  s  s  s  s q                                    
--------------------------------------|---------------------------------
--------------------------------------|---------------------------------
---------------------------------5h7--|---------------------------------
0--0--0--0--0--0--0--0--0--0--0-------|---------------------------------
                                                                        

s  s  s  s  s  s  s  s  s  s  s  s  s  s  s  s     q  q  h              
------------------------------------------------|-----------|-----------
------------------------------------------------|-----------|-----------
3--3--3--3--3--3--3--3--5--5--5--5--5--5--5--5--|--0--3-----|-----------
------------------------------------------------|--------0--|-----------
                                                                        

q  q  h           h   q  q      h   q  q      h   q  q                  
----------||--||-------------|-------------|-------------|--------------
---------*||--||-------------|-------------|-------------|--------------
0--3--2--*||--||------15/17--|------12/14--|--15---------|--------------
----------||--||--15---------|--12---------|------13/15--|--------------
                  Verse II Alt                                          

q  q  h            q   e   e   e   q   e   e   e                        
----------||--||-----------------------------------|--------------------
----------||--||*----------------------------------|--------------------
17\15/17--||--||*------14--15--14--17--14--17--14--|--------------------
----------||--||---15------------------------------|--------------------
              Finale                                                    

q   e   e   e   q   e   e   e      h   e   e      h   e   e             
--------------------------------|--------------|--------------|---------
--------------------------------|--------------|--------------|---------
--------12------14------12--14--|--15--14------|----------14--|---------
12--14------15------15----------|----------17--|--15--17------|---------
                                                                        

q   e   e   e   q      q   q        w                                   
--------------------|-----------||------||------------------------------
--------------------|----------*||------||------------------------------
15--14--15--14--17--|--15--14--*||------||------------------------------
--------------------|-----------||--15--||------------------------------
                                    End on G                            

                                                                        
------------------------------------------------------------------------
------------------------------------------------------------------------
------------------------------------------------------------------------
------------------------------------------------------------------------
                                                                        

                                                                        
------------------------------------------------------------------------
------------------------------------------------------------------------
------------------------------------------------------------------------
------------------------------------------------------------------------
                                                                        

Order:
 
Introduction 
Verse I 
Pre Chorus 
Chorus 
Verse II 
Triplet part of Introduction 
Verse I 
Pre Chorus 
Chorus 
Verse II 
Solo 
Chorus 
Verse II 
Verse II alt 
Finale 
 
In Part I 
play the third note of each triplet. 
The first part of Verse I is optional... I like to play the root notes 
there. 
The finale...hmmmm ok 
this is not really what's played - but it's close 
and I like the sound of this version too. If you correct this tab 
please include my version as an alternate ending :)



========================================================================
==                       TABLATURE EXPLANATION                        ==
========================================================================

----------                ----------                ----t---
----5h8--- Hammeron       ----(8)--- Ghost          ----6--- Tap
----------                ---------- Note           --------
----5p8--- Pulloff        ----------                --------

----------                ----------                -----p--
----5/8--- Slide Up       -----x---- Dead           -----7-- Pop
----------                ---------- Note           --s-----
----5\8--- Slide Down     ----------                --5----- Slap 

----------                ||------|| Repeat         --------
----5~~~-- Vibrato        ||*----*||                ---5^--- Bend
----------                ||*----*||                --------
----------                ||------||                --------

----------                ----------                --------
-4:------- Time           ----------                --------
-4:------- Signature      ----------                --------
----------                ----------                --------

Rhythm:
  w = whole note            W = dotted whole
  h = half note             H = dotted half
  q = quarter note          Q = dotted quarter
  e = eighth note           E = dotted eighth
  s = sixteenth note        S = dotted sixteenth
  t = 32nd note             T = dotted 32nd
  x = 64th note             X = dotted 64th
  ^ = triplet

========================================================================
==               Created with BUCKET O' TAB for Windows               ==
==                  For more info email gse@his.com                   ==
========================================================================
Suggest correction
Give kudos to tab author, rate the tab!
1 2 3 4 5
comments
print report bad tab
4 comments total. Showing first comments.
0 reply
skwerl066 10 Aug 03, 2004 08:00 PM

ya man i agreee Dragonforce is the best power metal band in the world

0 reply
Dragonforce89 10 Jun 11, 2008 11:43 AM

ME to the best band in the world.

0 reply
elpenguino 10 Jul 24, 2008 12:54 PM

great band, hard to read tab though.

guest
You may want to rate the tab now too:
select rating
Wanna post a correction for this tab? Suggest correction