Oops, an error
Loading. Please wait.

Valley Of The Damned bass

version 2
version 2

Whole song

1,072 views 1 this week
no commentswrite comment
1 2 3 4 5
2 more votes to show rating
add to favorites
×
Save as Personal and add changes to this tab that will be seen only by you. Learn more ›
×
You can save this tab as Personal to edit and correct it or add notes. All changes will be seen only by you. Learn more »
launch autoscroll
font size
0
reset
guitar tuner
backing track
0:00
0:00
edit
Autoscroll
slow
fast
+/-
esc
set tempo
stop
#----------------------------------PLEASE NOTE---------------------------------#
#This file is the author's own work and represents their interpretation of the #
#song. You may only use this file for private study, scholarship, or research. #
#------------------------------------------------------------------------------#

VALLEY OF THE DAMNED (Bassline)
As recorded by Dragonforce
(From the 2003 Album VALLEY OF THE DAMNED)


Transcribed by Pete (Delirium_Veil), NOT ME!

 Words by Sam Totman, ZP Theart Music by Sam Totman
Arranged by Dragonforce


Gtr I (E A D G) - 'Diccon Almouzni'
Gtr II (E A D G B E) - 'Vadim Pruhanov Keyboard'


   Intro
    Fast Power Metal Q=200
   4/4
    Gtr I
     E E Q  E E Q      E  E Q  E E Q     E E Q  E E Q      E  E Q  E E Q
||-----------------|------------------|----------------|-------------------|
||o----------------|------------------|----------------|-------------------|
||o----------------|------------------|----------------|-------------------|
||---0-0-0--0-0-0--|---0--0-0--0-0-0--|--3-3-3--3-3-3--|---3--3-3--3-3-3---|
|
|   Gtr II
|    W                +W                 W                +W
||--19-------------|-(19)-------------|-19-------------|-(19)--------------|
||o-20-------------|-(20)-------------|-15-------------|-(15)--------------|
||--16-------------|-(16)-------------|-16-------------|-(16)--------------|
||--14-------------|-(14)-------------|-12-------------|-(12)--------------|
||o----------------|------------------|----------------|-------------------|
||-----------------|------------------|----------------|-------------------|


   E E Q  E E Q      E  E Q  E E Q     E E Q  Q  E E   +E  Q  E E E Q
|----------------|------------------|----------------|------------------||
|----------------|------------------|----------------|-----------------o||
|--5-5-5--5-5-5--|---5--5-5--5-5-5--|--3-3-3--3--3-3-|-(3)-2--2-2-3-2--o||
|----------------|------------------|----------------|------------------||
|
|  W                +W                 W                W
|-17-------------|-(17)-------------|-15-------------|-14---------------||
|-15-------------|-(15)-------------|-17-------------|-15--------------o||
|-14-------------|-(14)-------------|-12-------------|-11---------------||
|-12-------------|-(12)-------------|-10-------------|--9---------------||
|----------------|------------------|----------------|-----------------o||
|----------------|------------------|----------------|------------------||


     E E Q  E E Q      E  E Q  E E Q     E E Q  E E Q      E  E Q  E E E E
||-----------------|------------------|----------------|--------------------|
||o----------------|------------------|----------------|--------------------|
||o----------------|------------------|----------------|---------------2-0--|
||---0-0-0--0-0-0--|---0--0-0--0-0-0--|--3-3-3--3-3-3--|---3--3-3--3-3------|
|
|    W                +W                 W                +W
||--19-------------|-(19)-------------|-22-------------|-(22)---------------|
||o-20-------------|-(20)-------------|-15-------------|-(15)---------------|
||--16-------------|-(16)-------------|-16-------------|-(16)---------------|
||--14-------------|-(14)-------------|-12-------------|-(12)---------------|
||o----------------|------------------|----------------|--------------------|
||-----------------|------------------|----------------|--------------------|


   E E Q  E E Q      E  E E E E E E E
|----------------|--------------------|
|----------------|--------2-4---------|
|--5-5-5--5-5-5--|---5--5-----5-5-5-2-|
|----------------|--------------------|
|
|  W                +W
|-22-------------|-(22)---------------|
|-15-------------|-(15)---------------|
|-14-------------|-(14)---------------|
|-12-------------|-(12)---------------|
|----------------|--------------------|
|----------------|--------------------|


   E E Q  Q  Q     Q  Q  Q  Q      E E E E E E E E
|---------0--5--|--4--2--0------||-----------------|
|------2--------|-----------4--o||-----------------|
|--3-3----------|--------------o||-2-2-2-2-2-2-2-2-|
|---------------|---------------||-----------------|
|
|  W               W               W
|-20------------|-19------------||-----------------|
|-17------------|-15-----------o||-----------------|
|-12------------|-11------------||-----------------|
|-10------------|--9------------||-----------------|
|---------------|--------------o||-----------------|
|---------------|---------------||-----------------|


 Verse
  E E E E E E E E   E E E E E E E E   E E E E E E E E   E E E E E E E E
|-----------------|-----------------|-----------------|-----------------|
|-----------------|-----------------|-----------------|-----------------|
|-7-7-7-7-7-7-7-7-|-7-7-7-7-7-7-7-7-|-7-7-7-7-7-7-7-7-|-7-7-7-7-7-7-7-7-|
|-----------------|-----------------|-----------------|-----------------|


  E E E E E E E E   E E E E E E E E   W          W
|-----------------|-----------------|----------|------|
|-----------------|-----------------|----------|------|
|-5-5-5-5-5-5-5-5-|-5-5-5-5-5-5-5-5-|-3--------|-5----|
|-----------------|-----------------|----------|------|


   Q  E E E E E E     E  E E E E E E E    Q  E E E E E E     E  E E E E E E E
|-----------------|--------------------|-----------------|--------------------|
|-----------------|--------------------|-----------------|--------------------|
|--7--7-7-7-7-7-7-|---7--7-7-7-7-7-7-7-|--7--7-7-7-7-7-7-|---7--7-7-7-7-7-7-7-|
|-----------------|--------------------|-----------------|--------------------|
|
| Gtr II
|  W                 +W                   W                 +W
|-19--------------|-(19)---------------|-19--------------|-(19)---------------|
|-17--------------|-(17)---------------|-17--------------|-(17)---------------|
|--9--------------|--(9)---------------|--9--------------|--(9)---------------|
|-----------------|--------------------|-----------------|--------------------|
|-----------------|--------------------|-----------------|--------------------|
|-----------------|--------------------|-----------------|--------------------|


   Q  E E E E E E     E  E E E E E E E    E E E E E E E E    E E E E E E E E
|-----------------|--------------------|------------------|------------------|
|-----------------|--------------------|------------------|------------------|
|--5--5-5-5-5-5-5-|---5--5-5-5-5-5-5-5-|--3-3-3-3-3-3-3-3-|--5-5-5-5-5-5-5-5-|
|-----------------|--------------------|------------------|------------------|
|
|  W                 +W                   W                  W
|-17--------------|-(17)---------------|-15---------------|-17---------------|
|-15--------------|-(15)---------------|-13---------------|-10---------------|
|--7--------------|--(7)---------------|--5---------------|--7---------------|
|-----------------|--------------------|------------------|------------------|
|-----------------|--------------------|------------------|------------------|
|-----------------|--------------------|------------------|------------------|


  $
   E S S S S E S S S S E S S     E  S S S S E S S E E E
|----------------------------|--------------------------|
|----------------------------|--------------------------|
|--7-7-7-7-7-7-7-7-7-7-7-7-7-|---7--7-7-7-7-7-7-7-7---5-|
|----------------------------|----------------------7---|
|
|  W                            +W
|-19-------------------------|-(19)---------------------|
|-17-------------------------|-(17)---------------------|
|--9-------------------------|--(9)---------------------|
|----------------------------|--------------------------|
|----------------------------|--------------------------|
|----------------------------|--------------------------|


   E S S S S E S S S S E S S     E  S S S S E S S S S E S S
|----------------------------|-------------------------------|
|----------------------------|-------------------------------|
|--7-7-7-7-7-7-7-7-7-7-7-7-7-|---7--7-7-7-7-7-7-7-7-7-7-7-7--|
|----------------------------|-------------------------------|
|
|  W                            +W
|-19-------------------------|-(19)--------------------------|
|-17-------------------------|-(17)--------------------------|
|--9-------------------------|--(9)--------------------------|
|----------------------------|-------------------------------|
|----------------------------|-------------------------------|
|----------------------------|-------------------------------|


   E S S S S E S S S S E S S     E  S S S S E S S S S E E
|----------------------------|----------------------------|
|----------------------------|----------------------------|
|--5-5-5-5-5-5-5-5-5-5-5-5-5-|---5--5-5-5-5-5-5-5-5-5-5-2-|
|----------------------------|----------------------------|
|
|  W                            +W
|-17-------------------------|-(17)-----------------------|
|-15-------------------------|-(15)-----------------------|
|--7-------------------------|--(7)-----------------------|
|----------------------------|----------------------------|
|----------------------------|----------------------------|
|----------------------------|----------------------------|


   E E E E E E E E    E E E E E E E E
|------------------|------------------||
|------------------|------------------||
|--3-3-3-3-3-3-3-3-|--5-5-5-5-5-5-5-3-||
|------------------|------------------||
|
|  W                  W
|-15---------------|-17---------------||
|-13---------------|-10---------------||
|--5---------------|--7---------------||
|------------------|--4---------------||
|------------------|------------------||
|------------------|------------------||


 Bridge
   E E E E E E E E     E  E E E E E E E
|------------------|--------------------|
|------------------|--------------------|
|------------------|---3--3-3-3-3-3-3-3-|
|--5-5-5-5-5-5-5-5-|--------------------|
|
|  W                   W
|-20---------------|-(20)---------------|
|-17---------------|--13----------------|
|--5---------------|--(5)---------------|
|------------------|--------------------|
|------------------|--------------------|
|------------------|--------------------|


   E S S S S E S S S S E E     E  S S S S E S S S S E E
|--------------------------|---7s=9-9-9-9-9-9-9-9-9-9-9--|
|--------------------------|-----------------------------|
|--7-7-7-7-7-7-7-7-7-7-7-7-|-----------------------------|
|--------------------------|-----------------------------|
|
|  W                          +W
|-19-----------------------|-(19)------------------------|
|-12-----------------------|-(12)------------------------|
|--4-----------------------|--(4)------------------------|
|--------------------------|-----------------------------|
|--------------------------|-----------------------------|
|--------------------------|-----------------------------|


   E E E E E E E E     E  E E E E E E E
|------------------|--------------------|
|------------------|--------------------|
|------------------|---3--3-3-3-3-3-3-3-|
|--5-5-5-5-5-5-5-5-|--------------------|
|
|  W                   W
|-20---------------|-(20)---------------|
|-17---------------|--13----------------|
|--5---------------|--(5)---------------|
|------------------|--------------------|
|------------------|--------------------|
|------------------|--------------------|


   E E E E E E E E     E  E E E E E E E
|------------------|--------------------||
|------------------|--------------------||
|--2-2-2-2-2-2-2-2-|---2--2-2-2-2-2-2-2-||
|------------------|--------------------||
|
|  W                  +W
|-19---------------|-(19)---------------||
|-12---------------|-(12)---------------||
|--4---------------|--(4)---------------||
|------------------|--------------------||
|------------------|--------------------||
|------------------|--------------------||


 Pre-Chorus
   E S S S S E S S S S E S S     E  E E E S S S S E E
|----------------------------|------------------------|
|----------------------------|------------------------|
|--7-7-7-7-7-7-7-7-7-7-7-7-7-|---7--7-7-7-7-7-7-7-7-7-|
|----------------------------|------------------------|
|
|  W                            +W
|-19-------------------------|-(19)-------------------|
|-12-------------------------|-(12)-------------------|
|--4-------------------------|--(4)-------------------|
|----------------------------|------------------------|
|----------------------------|------------------------|
|----------------------------|------------------------|


   E E E E E S S S S S S     S  S S S E E E E E E
|------------------------|------------------------|
|------------------------|------------------------|
|------------------------|----------------2-2-0-0-|
|--3-3-3-3-3-3-3-3-3-3-3-|---3--3-3-3-3-3---------|
|
|  W                        +W
|-22---------------------|-(22)-------------------|
|-15---------------------|-(15)-------------------|
|--7---------------------|--(7)-------------------|
|------------------------|------------------------|
|------------------------|------------------------|
|------------------------|------------------------|


   E E E E E S S S S S S     E  E E E E E E E
|------------------------|--------------------|
|------------------------|--------------------|
|--5-5-5-5-5-5-5-5-5-5-5-|---5--5-5-5-5-5-5-5-|
|------------------------|--------------------|
|
|  W                        +W
|-22---------------------|-(22)---------------|
|-10---------------------|-(10)---------------|
|--7---------------------|--(7)---------------|
|------------------------|--------------------|
|------------------------|--------------------|
|------------------------|--------------------|


   E E E E E S S S S S S     E   S  S  E  E  E  E  Q
|------------------------|-------------------------------|
|------------------------|---2s=14-14-14-14-14-14-14\----|
|--7-7-7-7-7-7-7-7-7-7-7-|-------------------------------|
|------------------------|-------------------------------|
|
|  W                        +W
|-19---------------------|-(19)--------------------------|
|-12---------------------|-(12)--------------------------|
|--9---------------------|--(9)--------------------------|
|------------------------|-------------------------------|
|------------------------|-------------------------------|
|------------------------|-------------------------------|


   E S S S S E S S S S E S S     E  E E E S S S S E E
|----------------------------|------------------------|
|----------------------------|------------------------|
|--7-7-7-7-7-7-7-7-7-7-7-7-7-|---7--7-7-7-7-7-7-7-7-7-|
|----------------------------|------------------------|
|
|  W                            +W
|-19-------------------------|-(19)-------------------|
|-12-------------------------|-(12)-------------------|
|--4-------------------------|--(4)-------------------|
|----------------------------|------------------------|
|----------------------------|------------------------|
|----------------------------|------------------------|


   E E E E E S S S S S S     S  S S S E E E E E E
|------------------------|------------------------|
|------------------------|------------------------|
|------------------------|----------------5-5-2-2-|
|--3-3-3-3-3-3-3-3-3-3-3-|---3--3-3-3-3-3---------|
|
|  W                        +W
|-22---------------------|-(22)-------------------|
|-15---------------------|-(15)-------------------|
|--7---------------------|--(7)-------------------|
|------------------------|------------------------|
|------------------------|------------------------|
|------------------------|------------------------|


   E E E E E E E E     Q   Q  Q  Q     E E E E E E E E     E  E E E H
|------------------|-------5--------|------------------|---2s=7-7-7-7----||
|------------------|---5---------5--|----------0s7-7-7-|-----------------||
|--3-3-3-3-3-3-3-3-|----------3-----|--5-5-5-5---------|-----------------||
|------------------|----------------|------------------|-----------------||
|
|  W                  +W               W                  +W
|-20---------------|-(20)-----------|-22---------------|-(22)------------||
|-13---------------|-(13)-----------|-15---------------|-(15)------------||
|--9---------------|--(9)-----------|-11---------------|-(11)------------||
|------------------|----------------|------------------|-----------------||
|------------------|----------------|------------------|-----------------||
|------------------|----------------|------------------|-----------------||


   Chorus
     E E E E E E E E    E E E E E E E E    E E E E E E E E    E E E E E E E E
||-------------------|------------------|------------------|-------------------|
||o------------------|------------------|------------------|-------------------|
||o------------------|--5-5-5-5-5-5-5-5-|--7-7-7-7-7-7-7-7-|-------------------|
||---3-3-3-3-3-3-3-3-|------------------|------------------|--7-7-7-7-7-7-7-7--|
|
|    W                  W                  W                  W
||--19---------------|-22---------------|-19---------------|-22----------------|
||o-20---------------|-19---------------|-17---------------|-15----------------|
||--12---------------|-11---------------|--9---------------|--7----------------|
||-------------------|------------------|------------------|-------------------|
||o------------------|------------------|------------------|-------------------|
||-------------------|------------------|------------------|-------------------|


                                                                   To Coda
   E E E E E E E E    E E E E E E E E    E E E E E E E E    E E E E E E E E
|------------------|------------------|------------------|-------------------||
|------------------|------------------|------------------|------------------o||
|--3-3-3-3-3-3-3-3-|------------------|--3-3-3-3-3-3-3-3-|--5-5-5-5-5-5-5-5-o||
|------------------|--3-3-3-3-3-3-3-3-|------------------|-------------------||
|
|  W                  W                  W                  W
|-20---------------|-19---------------|-20---------------|-22----------------||
|-17---------------|-20---------------|-17---------------|-19---------------o||
|--9---------------|--7---------------|--9---------------|-11----------------||
|------------------|------------------|------------------|-------------------||
|------------------|------------------|------------------|------------------o||
|------------------|------------------|------------------|-------------------||


     E E Q  E E Q      E  E Q  E E Q     E E Q  E E Q      E  E Q  E E E E
||-----------------|------------------|----------------|--------------------|
||o----------------|------------------|----------------|--------------------|
||o----------------|------------------|----------------|---------------2-0--|
||---0-0-0--0-0-0--|---0--0-0--0-0-0--|--3-3-3--3-3-3--|---3--3-3--3-3------|
|
|    W                +W                 W                +W
||--19-------------|-(19)-------------|-19-------------|-(19)---------------|
||o-20-------------|-(20)-------------|-15-------------|-(15)---------------|
||--16-------------|-(16)-------------|-16-------------|-(16)---------------|
||--14-------------|-(14)-------------|-12-------------|-(12)---------------|
||o----------------|------------------|----------------|--------------------|
||-----------------|------------------|----------------|--------------------|


   E E Q  E E Q      E  E E E E E E E    E E Q  Q  Q     Q  Q  Q  Q
|----------------|--------------------|---------0--5--|--4--2--0------||
|----------------|--------2-4---------|------2--------|-----------4--o||
|--5-5-5--5-5-5--|---5--5-----5-5-5-2-|--3-3----------|--------------o||
|----------------|--------------------|---------------|---------------||
|
|  W                +W                   W               W
|-22-------------|-(22)---------------|-20------------|-19------------||
|-15-------------|-(15)---------------|-17------------|-15-----------o||
|-14-------------|-(14)---------------|-12------------|-11------------||
|-12-------------|-(12)---------------|-10------------|--9------------||
|----------------|--------------------|---------------|--------------o||
|----------------|--------------------|---------------|---------------||


 Verse
   Q  E E E E E E     E  E E E E E E E    Q  E E E E E E     E  E E E E E E E
|-----------------|--------------------|-----------------|--------------------|
|-----------------|--------------------|-----------------|--------------------|
|--7--7-7-7-7-7-7-|---7--7-7-7-7-7-7-7-|--7--7-7-7-7-7-7-|---7--7-7-7-7-7-7-7-|
|-----------------|--------------------|-----------------|--------------------|
|
|  W                 +W                   W                 +W
|-19--------------|-(19)---------------|-19--------------|-(19)---------------|
|-17--------------|-(17)---------------|-17--------------|-(17)---------------|
|--9--------------|--(9)---------------|--9--------------|--(9)---------------|
|-----------------|--------------------|-----------------|--------------------|
|-----------------|--------------------|-----------------|--------------------|
|-----------------|--------------------|-----------------|--------------------|


                                                               D.S. al Coda
   Q  E E E E E E     E  E E E E E E E    E E E E E E E E    E E E E E E E E
|-----------------|--------------------|------------------|------------------||
|-----------------|--------------------|------------------|------------------||
|--5--5-5-5-5-5-5-|---5--5-5-5-5-5-5-5-|--3-3-3-3-3-3-3-3-|--5-5-5-5-5-5-5-5-||
|-----------------|--------------------|------------------|------------------||
|
|  W                 +W                   W                  W
|-17--------------|-(17)---------------|-15---------------|-17---------------||
|-15--------------|-(15)---------------|-13---------------|-10---------------||
|--7--------------|--(7)---------------|--5---------------|--7---------------||
|-----------------|--------------------|------------------|------------------||
|-----------------|--------------------|------------------|------------------||
|-----------------|--------------------|------------------|------------------||


   Solo - Herman
    &
     Q  Q  Q  Q    W           Q  Q  Q  Q    Q  Q  E  Q.
||---------------|----------|--------------|----------------|
||o--------------|----------|--------------|----------------|
||o--7-----------|----------|--7-----------|----------5-----|
||---0-----------|----------|--0-----------|----------------|
|
|    Q  Q  Q  Q    W           Q  Q  Q  Q    Q  Q  E  Q.
||--19-----------|----------|-19-----------|---------17-----|
||o-20-----------|----------|-20-----------|---------15-----|
||--16-----------|----------|-16-----------|---------14-----|
||--14-----------|----------|-14-----------|---------12-----|
||o--------------|----------|--------------|----------------|
||---------------|----------|--------------|----------------|


   Q  Q  Q  Q    W           W           W
|--------------|----------|-----------|--------||
|--------------|----------|-----------|-------o||
|--7-----------|----------|--3--------|--5----o||
|--0-----------|----------|-----------|--------||
|
|  Q  Q  Q  Q    W           W           W
|-19-----------|----------|-15--------|-17-----||
|-20-----------|----------|-17--------|-15----o||
|-16-----------|----------|-12--------|-14-----||
|-14-----------|----------|-10--------|-12-----||
|--------------|----------|-----------|-------o||
|--------------|----------|-----------|--------||


     E S S E E S S E E S S     E  E E E E E E E
||-------------------------|--------------------|
||o------------------------|--------------------|
||o--7-7-7-7-7-7-7-7-7-7-7-|---7--7-7-7-7-7-7-7-|
||-------------------------|--------------------|
|
|    W                        +W
||--19---------------------|-(19)---------------|
||o-20---------------------|-(20)---------------|
||--16---------------------|-(16)---------------|
||--14---------------------|-(14)---------------|
||o------------------------|--------------------|
||-------------------------|--------------------|


   E S S E E S S E E S S     E  E S S E E E  Q
|------------------------|-----------------------|
|------------------------|-----------------------|
|--7-7-7-7-7-7-7-7-7-7-7-|---7--7-7-7-7-7-7--5---|
|------------------------|-----------------------|
|
|  W                        +H.              Q
|-19---------------------|-(19)-------------17---|
|-20---------------------|-(20)-------------15---|
|-16---------------------|-(16)-------------14---|
|-14---------------------|-(14)-------------12---|
|------------------------|-----------------------|
|------------------------|-----------------------|


   E S S E E S S E E S S     E  E S S E E E E E
|------------------------|----------------------|
|------------------------|----------------------|
|--7-7-7-7-7-7-7-7-7-7-7-|---7--7-7-7-7-7-7-7-7-|
|------------------------|----------------------|
|
|  W                        +W
|-19---------------------|-(19)-----------------|
|-20---------------------|-(20)-----------------|
|-16---------------------|-(16)-----------------|
|-14---------------------|-(14)-----------------|
|------------------------|----------------------|
|------------------------|----------------------|


   E E E E E E E E    E E E E E E E E
|--------------0-0-|--------------2-2--||
|--------2-2-2-----|--------4-4-4-----o||
|--3-3-3-----------|--5-5-5-----------o||
|------------------|-------------------||
|
|  W                  W
|-15---------------|-17----------------||
|-17---------------|-15---------------o||
|-12---------------|-14----------------||
|-10---------------|-12----------------||
|------------------|------------------o||
|------------------|-------------------||


 Solo - Sam
  E E E E E E E E   E E E E E E E E    E E E E E E E E     E  E E E E E E E
|-----------------|-----------------|------------------|---7s=9-9-7s9-9-7-5-|
|-----------------|-------5---------|------------------|--------------------|
|-------7---------|-3-3-3---3-3-3-3-|--7-7-7-7-7-7-7-7-|--------------------|
|-5-5-5---5-5-5-5-|-----------------|------------------|--------------------|
|
| Gtr II
| W                 W                  W                  +W
|-5---------------|-8---------------|-12---------------|-(12)---------------|
|-1---------------|-5---------------|--8---------------|--(8)---------------|
|-2---------------|-5---------------|--9---------------|--(9)---------------|
|-----------------|-----------------|------------------|--------------------|
|-----------------|-----------------|------------------|--------------------|
|-----------------|-----------------|------------------|--------------------|


                                                         ~~~~~~~~~~~~~
  E E E E E E E E   E E E E E E E E   E E E E E E E E    E  E E E E E E E
|-----------------|-----------------|-----------------|-------------------||
|-----------------|-------5---------|-----------------|--9--9-8-8-7-7-5-5-||
|-------7---------|-3-3-3---3-3-3-3-|-----------------|-------------------||
|-5-5-5---5-5-5-5-|-----------------|-7-7-7-7-7-7-7-7-|-------------------||
|
| W                 W                 W                 +W
|-5---------------|-8---------------|-7---------------|-(7)---------------||
|-1---------------|-5---------------|-7---------------|-(7)---------------||
|-2---------------|-5---------------|-4---------------|-(4)---------------||
|-----------------|-----------------|-----------------|-------------------||
|-----------------|-----------------|-----------------|-------------------||
|-----------------|-----------------|-----------------|-------------------||


   Solo - Herman
     E S S E E S S E E S S     E  E S S E E E E E
||-------------------------|----------------------|
||o------------------------|----------------------|
||o--7-7-7-7-7-7-7-7-7-7-7-|---7--7-7-7-7-7-7-7-7-|
||-------------------------|----------------------|
|
|    W                        +W
||--19---------------------|-(19)-----------------|
||o-20---------------------|-(20)-----------------|
||--16---------------------|-(16)-----------------|
||--14---------------------|-(14)-----------------|
||o------------------------|----------------------|
||-------------------------|----------------------|


   E S S E E S S E E S S     E  E S S E E E  Q
|------------------------|----------------------|
|------------------------|----------------------|
|--7-7-7-7-7-7-7-7-7-7-7-|---7--7-7-7-7-7-7--5--|
|------------------------|----------------------|
|
|  W                        +H.              Q
|-19---------------------|-(19)-------------17--|
|-20---------------------|-(20)-------------15--|
|-16---------------------|-(16)-------------14--|
|-14---------------------|-(14)-------------12--|
|------------------------|----------------------|
|------------------------|----------------------|


  1.
   E S S E E S S E E S S     E  E S S E E E E E
|------------------------|----------------------|
|------------------------|----------------------|
|--7-7-7-7-7-7-7-7-7-7-7-|---7--7-7-7-7-7-7-7-7-|
|------------------------|----------------------|
|
|  W                        +W
|-19---------------------|-(19)-----------------|
|-20---------------------|-(20)-----------------|
|-16---------------------|-(16)-----------------|
|-14---------------------|-(14)-----------------|
|------------------------|----------------------|
|------------------------|----------------------|


   E E E E E E E E    E E E E E E E E
|------------------|-------------------||
|------------5-----|------------7-----o||
|--3-3-3-3-3---3-3-|--5-5-5-5-5---5-5-o||
|------------------|-------------------||
|
|  W                  W
|-15---------------|-17----------------||
|-17---------------|-15---------------o||
|-12---------------|-14----------------||
|-10---------------|-12----------------||
|------------------|------------------o||
|------------------|-------------------||


  2.
   E S S E E S S E E S S     E  E E E E E E E
|------------------------|------7-5-----------|
|------------------------|----------9-7-5-----|
|--7-7-7-7-7-7-7-7-7-7-7-|---7------------9-7-|
|------------------------|--------------------|
|
|  W                        +W
|-19---------------------|-(19)---------------|
|-20---------------------|-(20)---------------|
|-16---------------------|-(16)---------------|
|-14---------------------|-(14)---------------|
|------------------------|--------------------|
|------------------------|--------------------|


   E E E E E E E E    E E E E E E E E
|--------0-0-------|--------2-2--------||
|------2-----2-----|------4-----4------||
|--3-3---------3-3-|--5-5---------5-5--||
|------------------|-------------------||
|
|  W                  W
|-15---------------|-17----------------||
|-17---------------|-15----------------||
|-12---------------|-14----------------||
|-10---------------|-12----------------||
|------------------|-------------------||
|------------------|-------------------||


 Solo - Sam
  E E E E E E E E   E E E E E E E E    E E E E E E E E     E  E E E E E E E
|-----------------|-----------------|------------------|---7s=9-9-7s9-9-7-5-|
|-----------------|-------5---------|------------------|--------------------|
|-------7---------|-3-3-3---3-3-3-3-|--7-7-7-7-7-7-7-7-|--------------------|
|-5-5-5---5-5-5-5-|-----------------|------------------|--------------------|
|
| Gtr II
| W                 W                  W                  +W
|-5---------------|-8---------------|-12---------------|-(12)---------------|
|-1---------------|-5---------------|--8---------------|--(8)---------------|
|-2---------------|-5---------------|--9---------------|--(9)---------------|
|-----------------|-----------------|------------------|--------------------|
|-----------------|-----------------|------------------|--------------------|
|-----------------|-----------------|------------------|--------------------|


  E E E E E E E E   E E E E E E E E   E E E E E E E E    E  E E E E E E E
|-----------------|-----------------|-----------------|-------------------||
|-----------------|-------5---------|-------------4s7s|==9--9-9-9-9-9s7s5-||
|-------7---------|-3-3-3---3-3-3-3-|-2-2-2-2-2-2-----|-------------------||
|-5-5-5---5-5-5-5-|-----------------|-----------------|-------------------||
|
| W                 W                 W                 +W
|-5---------------|-8---------------|-7---------------|-(7)---------------||
|-1---------------|-5---------------|-7---------------|-(7)---------------||
|-2---------------|-5---------------|-4---------------|-(4)---------------||
|-----------------|-----------------|-----------------|-------------------||
|-----------------|-----------------|-----------------|-------------------||
|-----------------|-----------------|-----------------|-------------------||


   Solo - Herman
     E S S E E S S E E E     E  S S E E S S E E E
||-----------------------|------------------------|
||o----------------------|------------------------|
||o--7-7-7-7-7-7-7-7-7-7-|---7--7-7-7-7-7-7-7-7-7-|
||-----------------------|------------------------|
|
|    W                      +W
||--19-------------------|-(19)-------------------|
||o-20-------------------|-(20)-------------------|
||--16-------------------|-(16)-------------------|
||--14-------------------|-(14)-------------------|
||o----------------------|------------------------|
||-----------------------|------------------------|


   E S S E E S S E E E     E  S S E E S S E E E
|----------------------|------------------------|
|----------------------|------------------------|
|----------------------|------------------------|
|--3-3-3-3-3-3-3-3-3-3-|---3--3-3-3-3-3-3-3-3-3-|
|
|  W                      +W
|-19-------------------|-(19)-------------------|
|-15-------------------|-(15)-------------------|
|-16-------------------|-(16)-------------------|
|-12-------------------|-(12)-------------------|
|----------------------|------------------------|
|----------------------|------------------------|


  1.
   E S S E E S S E E E     E  S S E E S S E E E
|----------------------|------------------------|
|----------------------|------------------------|
|--5-5-5-5-5-5-5-5-5-5-|---5--5-5-5-5-5-5-5---5-|
|----------------------|--------------------7---|
|
|  W                      +W
|-17-------------------|-(17)-------------------|
|-15-------------------|-(15)-------------------|
|-14-------------------|-(14)-------------------|
|-12-------------------|-(12)-------------------|
|----------------------|------------------------|
|----------------------|------------------------|


   E E E E E E E E     E  E E E E E E E
|------------------|---------------------||
|------------------|--------------------o||
|--7-7-7-7-7-7---7-|---7--7-7-7-7-7-7---o||
|--------------5---|------------------5--||
|
|  W                  +W
|-19---------------|-(19)----------------||
|-20---------------|-(20)---------------o||
|-16---------------|-(16)----------------||
|-14---------------|-(14)----------------||
|------------------|--------------------o||
|------------------|---------------------||


  2.
   E E E E E E E E     E  E E E E E E E    E E E E E E E E     Q   Q  Q  Q
|------------------|------5-5-5-5-5-----|------------------|----------------||
|------------------|---5------------5---|------------------|----------------||
|--3-3-3-3-3-3-3-3-|------------------3-|--5-5-5-5-5-5-5-5-|---5---5--5--5--||
|------------------|--------------------|------------------|----------------||
|
|  W                  +W                   W                  +W
|-15---------------|-(15)---------------|-17---------------|-(17)-----------||
|-17---------------|-(17)---------------|-15---------------|-(15)-----------||
|-12---------------|-(12)---------------|-14---------------|-(14)-----------||
|-10---------------|-(10)---------------|-12---------------|-(12)-----------||
|------------------|--------------------|------------------|----------------||
|------------------|--------------------|------------------|----------------||


   Harmony
     E E E E E E E E    E E E E E E E E    E E E E E E E E    E E E E E E E E
||-------------------|------------------|------------------|-------------------|
||o------------------|------------------|------------------|-------------------|
||o------------------|--5-5-5-5-5-5-5-5-|--7-7-7-7-7-7-7-7-|-------------------|
||---3-3-3-3-3-3-3-3-|------------------|------------------|--7-7-7-7-7-7-7-7--|
|
|   Gtr II
|    W                  W                  W                  W
||--19---------------|-22---------------|-19---------------|-22----------------|
||o-20---------------|-19---------------|-17---------------|-15----------------|
||--12---------------|-11---------------|--9---------------|--7----------------|
||-------------------|------------------|------------------|-------------------|
||o------------------|------------------|------------------|-------------------|
||-------------------|------------------|------------------|-------------------|


  1.
   E E E E E E E E    E E E E E E E E    E E E E E E E E    E E E E E E E E
|------------------|------------------|------------------|-------------------||
|------------------|------------------|------------------|------------------o||
|--3-3-3-3-3-3-3-3-|------------------|--3-3-3-3-3-3-3-3-|--5-5-5-5-5-5-5-5-o||
|------------------|--3-3-3-3-3-3-3-3-|------------------|-------------------||
|
|  W                  W                  W                  W
|-20---------------|-19---------------|-20---------------|-22----------------||
|-17---------------|-20---------------|-17---------------|-19---------------o||
|--9---------------|--7---------------|--9---------------|-11----------------||
|------------------|------------------|------------------|-------------------||
|------------------|------------------|------------------|------------------o||
|------------------|------------------|------------------|-------------------||


  2.
   E E E E E E E E    E E E E E E E E    E E E E E E E E    E E E E E E E E
|------------------|------------------|------------------|------------------||
|------------------|------------------|------------------|------------------||
|--3-3-3-3-3-3-3-3-|------------------|--3-3-3-3-3-3-3-3-|--5-5-5-5-5-5-5-5-||
|------------------|--3-3-3-3-3-3-3-3-|------------------|------------------||
|
|  W                  W                  W                  W
|-20---------------|-19---------------|-20---------------|-19---------------||
|-17---------------|-20---------------|-17---------------|-15---------------||
|--9---------------|--7---------------|--9---------------|--7---------------||
|------------------|------------------|------------------|------------------||
|------------------|------------------|------------------|------------------||
|------------------|------------------|------------------|------------------||


 Chorus
  Q  Q  H      W            W              W
|------------|------------|--------------|--------------|
|------------|------------|--------------|--------------|
|------------|------------|--------------|--------------|
|-3----------|------------|--------------|--------------|
|
| W            H.      Q    Q.   Q.   Q    Q.   Q.   Q
|-7----------|-5-------5--|-7----5-------|--------------|
|-8----------|-7-------7--|-8----8----8--|-7----7----7--|
|-7----------|-7-------7--|-9----9----9--|-7----7----7--|
|------------|------------|--------------|--------------|
|------------|------------|--------------|--------------|
|------------|------------|--------------|--------------|


  W          W            W                 W
|----------|------------|----------------|-------|
|----------|------------|----------------|-------|
|----------|------------|----------------|-------|
|----------|------------|----------------|-------|
|
| W          H.      Q    Q.    Q   Q.      W
|----------|------------|----------------|-------|
|-8--------|-8-------8--|-8----10--12----|-10----|
|-9--------|-7-------7--|-9----11--12----|-11----|
|----------|------------|----------------|-------|
|----------|------------|----------------|-------|
|----------|------------|----------------|-------|


     E S S E E S S E E E    E S S E E S S E E E
||-----------------------|----------------------|
||o----------------------|----------------------|
||o----------------------|--5-5-5-5-5-5-5-5-5-5-|
||---3-3-3-3-3-3-3-3-3-3-|----------------------|
|
|    W                      W
||--19-------------------|-22-------------------|
||o-20-------------------|-19-------------------|
||--12-------------------|-11-------------------|
||-----------------------|----------------------|
||o----------------------|----------------------|
||-----------------------|----------------------|


   E S S E E S S E E E    E S S E E S S E E E
|----------------------|----------------------|
|----------------------|----------------------|
|--7-7-7-7-7-7-7-7-7-7-|----------------------|
|----------------------|--7-7-7-7-7-7-7-7-7-7-|
|
|  W                      W
|-19-------------------|-22-------------------|
|-17-------------------|-15-------------------|
|--9-------------------|--7-------------------|
|----------------------|----------------------|
|----------------------|----------------------|
|----------------------|----------------------|


  1.
   E S S E E S S E E E    E S S E E S S E E E
|----------------------|----------------------|
|----------------------|----------------------|
|--3-3-3-3-3-3-3-3-3-3-|----------------------|
|----------------------|--3-3-3-3-3-3-3-3-3-3-|
|
|  W                      W
|-20-------------------|-19-------------------|
|-17-------------------|-20-------------------|
|--9-------------------|--7-------------------|
|----------------------|----------------------|
|----------------------|----------------------|
|----------------------|----------------------|


   E S S E E S S E E E    E S S E E E E E E
|----------------------|-----------------------||
|----------------------|----------------------o||
|--3-3-3-3-3-3-3-3-3-3-|--5-5-5-5-5-5-3-2-0---o||
|----------------------|-----------------------||
|
|  W                      W
|-20-------------------|-22--------------------||
|-17-------------------|-19-------------------o||
|--9-------------------|-11--------------------||
|----------------------|-----------------------||
|----------------------|----------------------o||
|----------------------|-----------------------||


  2.
   E S S E E S S E E E    E S S E E S S E E E
|----------------------|----------------------|
|----------------------|----------------------|
|--3-3-3-3-3-3-3-3-3-3-|----------------------|
|----------------------|--3-3-3-3-3-3-3-3-3-3-|
|
|  W                      W
|-20-------------------|-19-------------------|
|-17-------------------|-20-------------------|
|--9-------------------|--7-------------------|
|----------------------|----------------------|
|----------------------|----------------------|
|----------------------|----------------------|


   E S S E E S S E E E    E S S E E S S E E E
|----------------------|-----------------------|
|----------------------|-----------------------|
|--3-3-3-3-3-3-3-3-3-3-|--5-5-5-5-5-5-5-5-5-5--|
|----------------------|-----------------------|
|
|  W                      W
|-20-------------------|-22--------------------|
|-17-------------------|-19--------------------|
|--9-------------------|-11--------------------|
|----------------------|-----------------------|
|----------------------|-----------------------|
|----------------------|-----------------------|


   E     S  S  S  S  S  S  S  S  S  S  S  S  S  S
|-------------------------------------------------|
|-------------------------------------------------|
|-------------------------------------------------|
|--3-----3--3--3--3--3--3--3--3--3--3--3--3--3--3-|
|
|  S  S  S  S  S  S  S  S  S  S  S  S  S  S  S  S
|----------20-22-20----------------20-22-20-------|
|-------24----------24----------24----------24----|
|----24----------------24----24----------------24-|
|-24----------------------24----------------------|
|-------------------------------------------------|
|-------------------------------------------------|


   E     S  S  S  S  S  S  S  S  S  S  S  S  S  S    E     S  S  S  S  S  S  S  S  S  S  S S  S  S
|------------------------------------------------|------------------------------------------------|
|------------------------------------------------|------------------------------------------------|
--5-----5--5--5--5--5--5--5--5--5--5--5--5--5--5-|--7-----7--7--7--7--7--7--7--7--7--7--7--7--7--7|
|------------------------------------------------|------------------------------------------------|
|
|  S  S  S  S  S  S  S  S  S  S  S  S  S  S  S  S    S  S  S  S  S  S  S  S  S  S  S  S  S S  S 
----------19-22-19----------------19-22-19-------|----------17-22-17----------------17-22-17------|
|------22----------22----------22----------22----|-------20----------20----------20----------20---|
|---23----------------23----23----------------23-|----21----------------21----21----------------21|
|24----------------------24----------------------|-21----------------------21---------------------|
|------------------------------------------------|------------------------------------------------|
|------------------------------------------------|------------------------------------------------|


   E     S  S  S  S  S  S  S  S  S  S  S  S  S  S
|-------------------------------------------------|
|-------------------------------------------------|
|-------------------------------------------------|
|--7-----7--7--7--7--7--7--7--7--7--7--7--7--7--7-|
|
|  S  S  S  S  S  S  S  S  S  S  S  S  S  S  S  S
|----------15-22-15----------------15-22-15-------|
|-------19----------19----------19----------19----|
|----19----------------19----19----------------19-|
|-21----------------------21----------------------|
|-------------------------------------------------|
|-------------------------------------------------|


   E     S  S  S  S  S  S  S  S  S  S  S  S  S  S    E     S  S  S  S  S  S  S  S  S  S  S S  S
|------------------------------------------------|------------------------------------------------|
|------------------------------------------------|------------------------------------------------|
|-3-----3--3--3--3--3--3--3--3--3--3--3--3--3--3-|------------------------------------------------|
|------------------------------------------------|--3-----3--3--3--3--3--3--3--3--3--3--3--3--3--3|
|
|  S  S  S  S  S  S  S  S  S  S  S  S  S  S  S  S    S  S  S  S  S  S  S  S  S  S  S  S  S S  S
|---------17-20-17----------------17-20-17-------|----------20-22-20----------------20-22-20------|
|------20----------20----------20----------20----|-------22----------22----------22----------22---|
|---21----------------21----21----------------21-|----24----------------24----24----------------24|
|22----------------------22----------------------|-24----------------------24---------------------|
|------------------------------------------------|------------------------------------------------|
|------------------------------------------------|------------------------------------------------|


   E     S  S  S  S  S  S  S  S  S  S  S  S  S  S
|-------------------------------------------------|
|-------------------------------------------------|
|--3-----3--3--3--3--3--3--3--3--3--3--3--3--3--3-|
|-------------------------------------------------|
|
|  S  S  S  S  S  S  S  S  S  S  S  S  S  S  S  S
|----------17-20-17----------------17-20-17-------|
|-------20----------20----------20----------20----|
|----21----------------21----21----------------21-|
|-22----------------------22----------------------|
|-------------------------------------------------|
|-------------------------------------------------|


   E    E     E    E     E    E     E    E
|---------------------------------------------||
|---------------------------------------------||
|--5----5-----5----5-----5----3-----2----0----||
|---------------------------------------------||
|
|  |---3---|  |---3---|  |---3---|  |---3---|
|  E  E    E  E  E    E  E  E    E  E  E    E
|------------17-------------------------------||
|---------20----20----------------------------||
|----23--------------23-19-17---16------------||
|-24-------------------------------19-17---16-||
|---------------------------------------------||
|---------------------------------------------||


 Outro Solo - Herman
  Q=150
   W           H    +E  E E E    H    +E  E E E    H.      Q
|-----------|-----------------|-----------------|-------------|
|-----------|-----------------|-----------------|-------------|
|-----------|--5----(5)-5-3-5-|--7----(7)-5---5-|-------------|
|--3--------|-----------------|-------------7---|--7-------7--|
|
|  W           W                 W                 W
|-19--------|-22--------------|-19--------------|-22----------|
|-20--------|-19--------------|-17--------------|-15----------|
|-12--------|-11--------------|--9--------------|--7----------|
|-----------|-----------------|-----------------|-------------|
|-----------|-----------------|-----------------|-------------|
|-----------|-----------------|-----------------|-------------|


   H    +E  E E E    H.      Q     H    +E  E E E    H    +E  E E E
|-----------0-----|-------------|-----------------|-----------------|
|-------------2-0-|-------------|-----------------|-----------------|
|--3----(3)-------|-------------|--3----(3)-3---3-|--5----(5)-5-2-0-|
|-----------------|--3-------3--|-------------5---|-----------------|
|
|  W                 W             W                 W
|-20--------------|-19----------|-20--------------|-22--------------|
|-17--------------|-20----------|-17--------------|-19--------------|
|--9--------------|--7----------|--9--------------|-11--------------|
|-----------------|-------------|-----------------|-----------------|
|-----------------|-------------|-----------------|-----------------|
|-----------------|-------------|-----------------|-----------------|


   H    Q    E E    Q.   Q  E E E    H    E E E E    E E E Q  E E E
|----------------|----------------|---------------|-----------------|
|-------5b7--5-2-|----------------|---------------|-----------------|
|----------------|--5----5--5-2-5-|--7----7-5-----|-----------------|
|--3-------------|----------------|-----------7-5-|--7-7-7-7--7-7-7-|
|
|  W                W                W               W
|-19-------------|-22-------------|-19------------|-22--------------|
|-20-------------|-19-------------|-17------------|-15--------------|
|-12-------------|-11-------------|--9------------|--7--------------|
|----------------|----------------|---------------|-----------------|
|----------------|----------------|---------------|-----------------|
|----------------|----------------|---------------|-----------------|


   Q.   Q    E E E    Q  E Q  E Q     Q.   E E E Q     Q  E E E E E E
|------------------|---------------|---------5------|-----------------|
|-------5b7--5-2---|-------5--7-5--|-------5---5----|-----9-7-5-------|
|--3-------------5-|-----5---------|--3----------3--|--5--------9-7-9-|
|------------------|--3------------|----------------|-----------------|
|
|  W                  W               W                W
|-20---------------|-19------------|-20-------------|-22--------------|
|-17---------------|-20------------|-17-------------|-19--------------|
|--9---------------|--7------------|--9-------------|-11--------------|
|------------------|---------------|----------------|-----------------|
|------------------|---------------|----------------|-----------------|
|------------------|---------------|----------------|-----------------|


   H    Q    E E    Q  Q  +E  E E E    H    E E E E    H    +E  E E E
|----------------|------------------|---------------|-----------------|
|-------5b7--5-2-|------------------|---------------|-----------------|
|----------------|--5--5--(5)-5-2-5-|--7----7-5-----|-----------------|
|--3-------------|------------------|-----------7-3-|--7----(7)-7-7-7-|
|
|  W                W                  W               W
|-19-------------|-22---------------|-19------------|-22--------------|
|-20-------------|-19---------------|-17------------|-15--------------|
|-12-------------|-11---------------|--9------------|--7--------------|
|----------------|------------------|---------------|-----------------|
|----------------|------------------|---------------|-----------------|
|----------------|------------------|---------------|-----------------|


   Q.   E E E E E    Q  E Q  E Q     Q  E E Q  E E    Q  S S S S S S S S E E
|-----------------|---------------|---------5------|-----7S9-9-9-7-7-7-7-----|
|-------5-2-0-----|-------5--7-5--|-------5----5---|---------------------9-7-|
|--3----------2-0-|-----5---------|--3--3--------3-|--5----------------------|
|-----------------|--3------------|----------------|-------------------------|
|
|  W                 W               W                W
|-20--------------|-19------------|-20-------------|-22----------------------|
|-17--------------|-20------------|-17-------------|-19----------------------|
|--9--------------|--7------------|--9-------------|-11----------------------|
|-----------------|---------------|----------------|-------------------------|
|-----------------|---------------|----------------|-------------------------|
|-----------------|---------------|----------------|-------------------------|


   Q.   E E E E E    Q  Q  +E  E E E    Q  Q  E E E E    H    +E  E E E
|-----------------|------------------|----------------|-----------------|
|---------5-7-5---|------------------|----------5-----|-----------------|
|-------5-------7-|--5--5--(5)-5-2-5-|--7--7--7---7-5-|-----------------|
|--3--------------|------------------|----------------|--7----(7)-7-7-7-|
|
|  W                 W                  W                W
|-19--------------|-22---------------|-19-------------|-22--------------|
|-20--------------|-19---------------|-17-------------|-15--------------|
|-12--------------|-11---------------|--9-------------|--7--------------|
|-----------------|------------------|----------------|-----------------|
|-----------------|------------------|----------------|-----------------|
|-----------------|------------------|----------------|-----------------|


                                    9/4
   Q  E E E E E E    Q  E Q  E E E    Q.   E E E Q   W          Q
|-----------------|----------------|---------5-----------------------|
|-----5-5-2-2-----|-------5--7-5---|-------5---5---------------------|
|--3----------5-2-|-----5--------7-|--3----------3---5----------7----|
|-----------------|--3-------------|---------------------------------|
|
|  W                 W                W              W         +Q
|-20--------------|-19-------------|-20-------------22--------(22)---|
|-17--------------|-20-------------|-17-------------19--------(19)---|
|--9--------------|--7-------------|--9-------------11--------(11)---|
|-----------------|----------------|---------------------------------|
|-----------------|----------------|---------------------------------|
|-----------------|----------------|---------------------------------|


 3/4
   S  S S S S S S S S S S S     S  S S S S S S S S S S S
|---------------------------|----------------------------|
|--5--5-5-5-5-5-5-5-5-5-5-5-|---5--5-5-5-5-5-5-5-5-5-5-5-|
|---------------------------|----------------------------|
|---------------------------|----------------------------|
|
|  H.                          +H.
|-19------------------------|-(19)-----------------------|
|-20------------------------|-(20)-----------------------|
|-12------------------------|-(12)-----------------------|
|---------------------------|----------------------------|
|---------------------------|----------------------------|
|---------------------------|----------------------------|


    S  S S S S S S S S S S S
|------------------------------|
|---5--5-5-5-5-5-5-5-5-5-5-5---|
|------------------------------|
|------------------------------|
|
|  +H.
|-(19)-------------------------|
|-(20)-------------------------|
|-(12)-------------------------|
|------------------------------|
|------------------------------|
|------------------------------|


    S  S S S S S S S S S S S     S  S S S S S S S S S  S  S
|----------------------------|----------------7-7-9-9-11-11-|
|---5--5-5-5-5-5-5-5-5-5-5-5-|---5--5-5-5-5-5---------------|
|----------------------------|------------------------------|
|----------------------------|------------------------------|
|
|  +H.                          +H.
|-(19)-----------------------|-(19)-------------------------|
|-(20)-----------------------|-(20)-------------------------|
|-(12)-----------------------|-(12)-------------------------|
|----------------------------|------------------------------|
|----------------------------|------------------------------|
|----------------------------|------------------------------|


    S   S  S  S  S  S  S  S  S  S  S  S     S   S  S  S  S  S  S  S  S  S  S  S
|--12--12-12-12-12-12-12-12-12-12-12-12-|--12--12-12-12-12-12-12-12-12-12-12-12----|
|---------------------------------------|------------------------------------------|
|---------------------------------------|------------------------------------------|
|---------------------------------------|------------------------------------------|
|
|  +H.                                     +H.
|-(19)----------------------------------|-(19)-------------------------------------|
|-(20)----------------------------------|-(20)-------------------------------------|
|-(12)----------------------------------|-(12)-------------------------------------|
|---------------------------------------|------------------------------------------|
|---------------------------------------|------------------------------------------|
|---------------------------------------|------------------------------------------|


    S   S  S  S  S  S  S  S  S  S  S  S
|--12--12-12-12-12-12-12-12-12-12-12-12-|
|---------------------------------------|
|---------------------------------------|
|---------------------------------------|
|
|  +H.
|-(19)----------------------------------|
|-(20)----------------------------------|
|-(12)----------------------------------|
|---------------------------------------|
|---------------------------------------|
|---------------------------------------|


 5/4                                     3/4
    S   S  S  S   S  S S S S S S S H        S  S S S S S S S Q
|--12--12-12-12--11--9-0-9-7-0-7-5-0----|---9--7-0-7-5-0-5-4-0---|
|---------------------------------------|------------------------|
|---------------------------------------|------------------------|
|---------------------------------------|--------------------3---|
|
|  +Q            +W                        +H.
|-(19)----------(19)--------------------|-(19)-------------------|
|-(20)----------(20)--------------------|-(20)-------------------|
|-(12)----------(12)--------------------|-(12)-------------------|
|---------------------------------------|------------------------|
|---------------------------------------|------------------------|
|---------------------------------------|------------------------|


             4/4
   +H.         +W            +W
|--(0)------|--(0)--------|--(0)----*|
|-----------|-------------|---------*|
|-----------|-------------|---------*|
|--(3)------|--(3)--------|--(3)----*|
|
|  +H.         +W            +W
|-(19)------|-(19)--------|-(19)----*|
|-(20)------|-(20)--------|-(20)----*|
|-(12)------|-(12)--------|-(12)----*|
|-----------|-------------|---------*|
|-----------|-------------|---------*|
|-----------|-------------|---------*|


--------------------------------------------------------------------------------


Duration Legend
---------------
W - whole; H - half; Q - quarter; E - 8th; S - 16th; T - 32nd; X - 64th; a - acciaccatura
+ - note tied to previous; . - note dotted; .. - note double dotted
Uncapitalized letters represent notes that are staccato (1/2 duration)
Irregular groupings are notated above the duration line
Duration letters will always appear directly above the note/fret number it represents the
duration for.  Duration letters with no fret number below them represent rests.  Multi-
bar rests are notated in the form Wxn, where n is the number of bars to rest for.  Low
melody durations appear below the staff

Tablature Legend
----------------
 h   - hammer-on
 p   - pull-off
 b   - bend
 pb  - pre-bend
 r   - bend release (if no number after the r, then release immediately)
 /\  - slide into or out of (from/to "nowhere")
 s   - legato slide
 S   - shift slide
 - natural harmonic
[n]  - artificial harmonic
n(n) - tapped harmonic
 ~   - vibrato
 tr  - trill
 T   - tap
 TP  - trem. picking
 PM  - palm muting
\n/  - tremolo bar dip; n = amount to dip
 \n  - tremolo bar down
 n/  - tremolo bar up
/n\  - tremolo bar inverted dip
 =   - hold bend; also acts as connecting device for hammers/pulls
 <> - volume swell (louder/softer)
 x   - on rhythm slash represents muted slash
 o   - on rhythm slash represents single note slash

Misc Legend
-----------
 |  - bar
||  - double bar
||o - repeat start
o|| - repeat end
*|  - double bar (ending)
 :  - bar (freetime)
 $  - Segno
 &  - Coda
Tempo markers -  = BPM(8/16=s8/s16), where s8 = swing 8ths, s16 = swing 16ths

            
            
Suggest correction
Creating personal tab
Creating personal tab
You can edit any tab online and save it as your Personal.

You can edit, replace or remove any tab part or add personal notes – all changes will be seen only by you.

Personal tabs can be accessed anytime from any device, even offline.
Learn more »
Give kudos to tab author, rate the tab!
1 2 3 4 5
comments
print report bad tab
guest
You may want to rate the tab now too:
select rating
Wanna post a correction for this tab? Suggest correction