Oops, an error
Loading. Please wait.

Valley Of The Damned tab

version 3
version 3

Whole song

8,530 views 6 this week
2 commentsread comments
1 2 3 4 5
x 6
add to favorites
×
Save as Personal and add changes to this tab that will be seen only by you. Learn more ›
×
You can save this tab as Personal to edit and correct it or add notes. All changes will be seen only by you. Learn more »
launch autoscroll
font size
0
reset
how to read this tab
guitar tuner
backing track
0:00
0:00
edit
Autoscroll
slow
fast
+/-
esc
set tempo
stop
#----------------------------------PLEASE NOTE---------------------------------#
#This file is the author's own work and represents their interpretation of the #
#song. You may only use this file for private study, scholarship, or research. #
#------------------------------------------------------------------------------#

VALLEY OF THE DAMNED
As recorded by Dragonforce
(From the 2003 Album VALLEY OF THE DAMNED)


Transcribed by Pete (Delirium_Veil), NOT ME!

 Words by Sam Totman, ZP Theart Music by Sam Totman
Arranged by Dragonforce
 

E5
0 2 2 x x x G5
3 5 5 x x x D5
x 5 7 7 x x C5
x 3 5 5 x x 
B5
x 2 4 4 x x 


Gtr I (E A D G B E) - 'Herman Li'
Gtr II (E A D G B E) - 'Sam Totman'
Gtr III (E A D G B E) - 'Vadim Pruhanov'
Gtr IV (E A D G B E) - 'Hamony'
Gtr V (E A D G B E) - 'Rhythm'


   Intro
    Fast Power Metal Q=200
    E5                                  G5
   4/4
    Gtr I
    PM|     PM|       PM|     PM|       PM|     PM|       PM|     PM|
    E E E E E E E E   E E E E E E E E   E E E E E E E E   E E E E E E E E
||------------------|-----------------|-----------------|------------------|
||o-----------------|-----------------|-----------------|------------------|
||------------------|-----------------|-----------------|------------------|
||------4h5-----4h5-|-----4h5-----4h5-|-----4h5-----4h5-|-----4h5-----4h5--|
||o-----------------|-----------------|-----------------|------------------|
||--0-0-----0-0-----|-0-0-----0-0-----|-3-3-----3-3-----|-3-3-----3-3------|
|
|   Gtr II
|   PM|     PM|       PM|     PM|       PM|     PM|       PM|     PM|
|   E E Q   E E Q     E E Q   E E Q     E E Q   E E Q     E E Q   E E Q
||------------------|-----------------|-----------------|------------------|
||o-----------------|-----------------|-----------------|------------------|
||------------------|-----------------|-----------------|------------------|
||------2-------2---|-----2-------2---|-----5-------5---|-----5-------5----|
||o-----2-------2---|-----2-------2---|-----5-------5---|-----5-------5----|
||--0-0-0---0-0-0---|-0-0-0---0-0-0---|-3-3-3---3-3-3---|-3-3-3---3-3-3----|


  D                                   C5                           B5
  PM|     PM|       PM|     PM|       PM|   PM     PM     PM   PM
  E E E E E E E E   E E E E E E E E   E E E E E  E E E    E  E E E +E  E Q
|-----------------|-----------------|------------------|---------------------||
|-----------------|-----------------|------------------|--------------------o||
|-----------------|-----------------|------------------|---------------------||
|-0-0-2h4-0-0-2h4-|-0-0-2h4-0-0-2h4-|-----2---4--5---5-|-----4---4-(4)-5-4---||
|-----------------|-----------------|-3-3---3------3---|--2----2------------o||
|-----------------|-----------------|------------------|---------------------||
|
| PM|     PM|       PM|     PM|       PM|
| E E Q   E E Q     E E Q   E E Q     E E Q   Q.     E   +E  Q   E  Q    Q
|-----------------|-----------------|------------------|---------------------||
|-----------------|-----------------|------------------|--------------------o||
|-----------------|-----------------|-----5---5--------|------------4----4---||
|-----4-------4---|-----4-------4---|-----5---5------5-|-(5)-4------4----4---||
|-5-5-5---5-5-5---|-5-5-5---5-5-5---|-3-3-3---3--------|---------2--2----2--o||
|-----------------|-----------------|------------------|---------------------||


      E5       E5        E5      E5          G5      G5        G5      G5
  Gtr V
  E E Q    E E Q     E E Q   E E Q      E  E Q   E E Q     E E Q   E E Q
  | | |    | | |     | | |   | | |      |  | |   | | |     | | |   | | |
  o / /    o / /     o / /   o / /      o  / /   o / /     o / /   o / /

  PM|      PM|       PM|     PM|        PM-|     PM|       PM|     PM|
  E E E E  E E E E   E E E E E E E E    E  E E E E E E E   E E E E E E E E
|------------------|-----------------|-------------------|-----------------|
|------------------|-----------------|-------------------|-----------------|
|------------------|-----------------|-------------------|-----------------|
|-----4h5------4h5-|-----4h5-----4h5-|-------4h5-----4h5-|-----4h5-----4h5-|
|------------------|-----------------|-------------------|-----------------|
|-0-0------0-0-----|-0-0-----0-0-----|--3--3-----3-3-----|-3-3-----3-3-----|
|
| Gtrs II, IV
| H        H         H       H         +H        H         H       H
|------------------|-----------------|-----------7-------|-5---------------|
|---------/8-------|-7---------------|-----------8-------|-7-------8-------|
|---------/9-------|-7-------9-------|-(9)---------------|---------7-------|
|------------------|---------9-------|-(9)---------------|-----------------|
|------------------|-----------------|-------------------|-----------------|
|------------------|-----------------|-------------------|-----------------|
  H        H         H       H         +H        H         H       H


        D5      D5        D5      D5         C5
   E  E Q   E E Q     E E Q   E E Q      E E Q   Q.     E
   |  | |   | | |     | | |   | | |      | | |   |      |
   o  / /   o / /     o / /   o / /      o / /   /      o

   PM-|     PM|       PM|     PM|        PM|   PM     PM
   E  E E E E E E E   E E E E E E E E    E E E E E  E E E
|-------------------|-----------------|-------------------|
|-------------------|-----------------|-------------------|
|-------------------|-----------------|-------------------|
|--0--0-2h4-0-0-2h4-|-0-0-2h4-0-0-2h4-|------2---4--5---5-|
|-------------------|-----------------|--3-3---3------3---|
|-------------------|-----------------|-------------------|
|
| +H        H         H       Q   Q      H       Q    Q
|-----------5-------|-----------------|-------------------|
|-(8)-------7-------|-8-------7-------|----------7----8---|
|-(7)---------------|-7-----------7---|--9-------9----9---|
|-------------------|-----------------|-10----------------|
|-------------------|-----------------|-------------------|
|-------------------|-----------------|-------------------|
  +H        H         H       Q   Q      H       Q    Q


                      B5
  +E     Q        E    Q        Q
   |     |        |    |        |
   /     o        o    /        /

   PM         PM
   E     E    E   E   +E    E   Q
|---------------------------------------|
|---------------------------------------|
|---------------------------------------|
|--------4--------4---(4)---5---4-------|
|--2----------2-------------------------|
|---------------------------------------|
|
|  S  S  S  S S S S S  S  S S S S S E
|---------------------------------------|
|-10-10-10-10-8-8-8-8--7--7-8-8-7-7-----|
|--7--7--7--7-5-5-5-5--4--4-4-4-4-4-7---|
|---------------------------------------|
|---------------------------------------|
|---------------------------------------|
   S  S  S  S S S S S  S  S S S S S E


  E5  E5       E5        E5      E5    G5    G5      G5        G5      G5
  E E Q    E E Q     E E Q   E E Q      E  E Q   E E Q     E E Q   E E Q
  | | |    | | |     | | |   | | |      |  | |   | | |     | | |   | | |
  o / /    o / /     o / /   o / /      o  / /   o / /     o / /   o / /

  PM|      PM|       PM|     PM|        PM-|     PM|       PM|     PM|
  E E E E  E E E E   E E E E E E E E    E  E E E E E E E   E E E E E E E E
|------------------|-----------------|-------------------|-----------------|
|------------------|-----------------|-------------------|-----------------|
|------------------|-----------------|-------------------|-----------------|
|-----4h5------4h5-|-----4h5-----4h5-|-------4h5-----4h5-|-----4h5-----4h5-|
|------------------|-----------------|-------------------|-----------------|
|-0-0------0-0-----|-0-0-----0-0-----|--3--3-----3-3-----|-3-3-----3-3-----|
|
| H        H         H       H         +H        H         H       H
|------------------|-----------------|-----------7-------|-5---------------|
|---------/8-------|-7---------------|-----------8-------|-7-------8-------|
|-9-------/9-------|-7-------9-------|-(9)---------------|---------7-------|
|-9----------------|---------9-------|-(9)---------------|-----------------|
|------------------|-----------------|-------------------|-----------------|
|------------------|-----------------|-------------------|-----------------|
  H        H         H       H         +H        H         H       H


        D5      D5        D5      D5         C5
   E  E Q   E E Q     E E Q   E E Q      E E Q   Q.     E
   |  | |   | | |     | | |   | | |      | | |   |      |
   o  / /   o / /     o / /   o / /      o / /   /      o

   PM-|     PM|       PM|     PM|        PM|   PM     PM
   E  E E E E E E E   E E E E E E E E    E E E E E  E E E
|-------------------|-----------------|-------------------|
|-------------------|-----------------|-------------------|
|-------------------|-----------------|-------------------|
|--0--0-2h4-0-0-2h4-|-0-0-2h4-0-0-2h4-|------2---4--5---5-|
|-------------------|-----------------|--3-3---3------3---|
|-------------------|-----------------|-------------------|
|
| +H        H         H       Q   Q      H       Q    Q
|-----------5-------|-----------------|-------------------|
|-(8)-------7-------|-8-------7-------|----------7----8---|
|-(7)---------------|-7-----------7---|--9-------9----9---|
|-------------------|-----------------|-10----------------|
|-------------------|-----------------|-------------------|
|-------------------|-----------------|-------------------|
  +H        H         H       Q   Q      H       Q    Q


                      B5                N.C.
  +E     Q        E    Q        Q       W
   |     |        |    |        |
   /     o        o    /        /

   PM         PM                        PM----------------------------|
   E     E    E   E   +E    E   Q       S S S S S S S S S S S S S S S S
|-------------------------------------|----------------------------------||
|-------------------------------------|----------------------------------||
|-------------------------------------|----------------------------------||
|--------4--------4---(4)---5---4-----|----------------------------------||
|--2----------2-----------------------|-2-2-2-2--------------------------||
|-------------------------------------|---------5-5-5-5-3-3-3-3-2-2-2-2--||
|
|  S  S  S  S S S S S  S  S S S S S E   S S S S S S S S S S S S S S S S
|-------------------------------------|----------------------------------||
|-10-10-10-10-8-8-8-8--7--7-8-8-7-7---|----------------------------------||
|--7--7--7--7-5-5-5-5--4--4-4-4-4-4-7-|-7-7-7-7-5-5-5-5-4-4-4-4----------||
|-------------------------------------|-9-9-9-9-7-7-7-7-5-5-5-5-7-7-7-7--||
|-------------------------------------|-------------------------9-9-9-9--||
|-------------------------------------|----------------------------------||
   S  S  S  S S S S S  S  S S S S S E   S S S S S S S S S S S S S S S S


 Verse
  N.C.
  Gtrs I, II
  PM------------------------------------------------------------------|
  E E E E E E E E   E E E E E E E E   E E E E E E E E   E E E E E E E E
|-----------------|-----------------|-----------------|-----------------|
|-----------------|-----------------|-----------------|-----------------|
|-----------------|-----------------|-----------------|-----------------|
|-----------------|-----------------|-----------------|-----------------|
|-7-7-7-7-7-7-7-7-|-7-7-7-7-7-7-7-7-|-7-7-7-7-7-7-7-7-|-7-7-7-7-7-7-7-7-|
|-----------------|-----------------|-----------------|-----------------|


                                      C5         D5
  PM------------------------------|
  E E E E E E E E   E E E E E E E E   W          W
|-----------------|-----------------|----------|------|
|-----------------|-----------------|----------|------|
|-----------------|-----------------|-5--------|-7----|
|-----------------|-----------------|-5--------|-7----|
|-5-5-5-5-5-5-5-5-|-5-5-5-5-5-5-5-5-|-3--------|-5----|
|-----------------|-----------------|----------|------|


  E5
     PM--------|     PM|   PM|   PM     PM--------|     PM|   PM|   PM
  Q  E E E E E E   E E E E E E E E   Q  E E E E E E   E E E E E E E E
|----------------|-----------------|----------------|-----------------|
|----------------|-----------------|----------------|-----------------|
|-9--------------|-9-----9-----9---|-9--------------|-9-----9-----9---|
|-9--------------|-9-----9-----9---|-9--------------|-9-----9-----9---|
|-7--7-7-7-7-7-7-|-7-7-7-7-7-7-7-7-|-7--7-7-7-7-7-7-|-7-7-7-7-7-7-7-7-|
|----------------|-----------------|----------------|-----------------|


  D5                                  C5         D5
    PM----------|     PM|   PM|   PM
  E E E E E E E E   E E E E E E E E   W          W
|-----------------|-----------------|----------|------|
|-----------------|-----------------|----------|------|
|-7---------------|-7-----7-----7---|-5--------|-7----|
|-7---------------|-7-----7-----7---|-5--------|-7----|
|-5-5-5-5-5-5-5-5-|-5-5-5-5-5-5-5-5-|-3--------|-5----|
|-----------------|-----------------|----------|------|


  $
  E5
  Gtr I
    PM------------------------|         PM----|     PM-----|
  E S S S S S S S S S S S S S S    E    S S S S E   S S  S  S E   E
|-------------------------------|-------------------------------------|
|-------------------------------|-------------------------------------|
|-------------------------------|-------------------------------------|
|-9-----------------------------|--9------------9---------------------|
|-7-7-7-7-7-7-7-7-7-7-7-7-7-7-7-|--7----7-7-7-7-7---7-7--7--7-----5---|
|-------------------------------|-----------------------------7-------|
|
| Gtr II
|   PM----|     PM----|     PM--------------------------------------|
| E S S S S E   S S S S E   S S    S  S S S S S S S S S  S  S S S S S
|-------------------------------|-------------------------------------|
|-------------------------------|-------------------------------------|
|-------------------------------|-------------------------------------|
|-9---------9-----------9-------|-10-10-9-9-7-7-9-9-7-7-------7-7-----|
|-7-7-7-7-7-7---7-7-7-7-7---7-7-|-----------------------10-10-----7-7-|
|-------------------------------|-------------------------------------|


    PM------------------------|         PM----|     PM-----|      PM|
  E S S S S S S S S S S S S S S    E    S S S S E   S S  S  S E   S S
|-------------------------------|----------------------------------------|
|-------------------------------|----------------------------------------|
|-------------------------------|----------------------------------------|
|-9-----------------------------|--9------------9-------------9----------|
|-7-7-7-7-7-7-7-7-7-7-7-7-7-7-7-|--7----7-7-7-7-7---7-7--7--7-7---7-7----|
|-------------------------------|----------------------------------------|
|
|   PM----|     PM----|     PM--------------------------------------|
| E S S S S E   S S S S E   S S    S  S S S S S S S S S  S  S S S S S
|-------------------------------|----------------------------------------|
|-------------------------------|----------------------------------------|
|-------------------------------|----------------------------------------|
|-9---------9-----------9-------|-10-10-9-9-7-7-9-9-7-7-------7-7--------|
|-7-7-7-7-7-7---7-7-7-7-7---7-7-|-----------------------10-10-----7-7----|
|-------------------------------|----------------------------------------|


  D5
    PM------------------------|
  E S S S S S S S S S S S S S S
|-------------------------------|
|-------------------------------|
|-------------------------------|
|-7-----------------------------|
|-5-5-5-5-5-5-5-5-5-5-5-5-5-5-5-|
|-------------------------------|
|
|   PM----|     PM----|     PM---
| E S S S S E   S S S S E   S S
|-------------------------------|
|-------------------------------|
|-------------------------------|
|-7---------7-----------7-------|
|-5-5-5-5-5-5---5-5-5-5-5---5-5-|
|-------------------------------|


                                    C5         D5
      PM----|     PM----|     PM|
  E   S S S S E   S S S S E   S S   W          W
|---------------------------------|----------|------||
|---------------------------------|----------|------||
|---------------------------------|-5--------|-7----||
|-7-----------7-----------7-------|-5--------|-7----||
|-5---5-5-5-5-5---5-5-5-5-5---5-5-|-3--------|-5----||
|---------------------------------|----------|------||
|
|-------------------------------|
| S S S S S S S S S S S S S S S S   W          W
|---------------------------------|----------|------||
|---------------------------------|----------|------||
|---------------------------------|-5--------|-7----||
|-9-9-7-7-5-5-7-7-5-5-4-4-5-5-----|-5--------|-7----||
|-----------------------------5-5-|-3--------|-5----||
|---------------------------------|----------|------||


 Bridge
  A5         C5         E5
                          PM----|   PM------------|
  W          W          E S S S S E S S S S S S S S
|----------|----------|-----------------------------|
|----------|----------|-----------------------------|
|----------|-5--------|-----------------------------|
|-7--------|-5--------|-9---------9-----------------|
|-7--------|-3--------|-7-7-7-7-7-7-7-7-7-7-7-7-7-7-|
|-5--------|----------|-----------------------------|
|
| W          W          W
|----------|----------|-----------------------------|
|----------|----------|-----------------------------|
|----------|-5--------|-----------------------------|
|-7--------|-5--------|-----------------------------|
|-7--------|-3--------|-----------------------------|
|-5--------|----------|-----------------------------|


     PM----|    PM----|   PM|
  E  S S S S E  S S S S E S S
|------------------------------|
|------------------------------|
|------------------------------|
|-9----------9----------9------|
|-7--7-7-7-7-7--7-7-7-7-7-7-7--|
|------------------------------|
|
| Q.         Q.         Q
|------------------------------|
|-8----------7-----------------|
|-----------------------7------|
|------------------------------|
|------------------------------|
|------------------------------|


  A5            C5              B5
  W             W                Q  E E E E E E     E  E E E E E Q
|-------------|---------------|-----------------|--------------------||
|-------------|---------------|-----------------|--------------------||
|-------------|-5-------------|--4----------0-2-|---0----------------||
|-7-----------|-5-------------|--4------2-4-----|------4-2-0---------||
|-7-----------|-3-------------|--2--3-0---------|------------3-2-----||
|-5-----------|---------------|-----------------|----------------5\--||
|
| H.      E E   Q.    Q.   Q     W                 +H        Q   Q
|-------------|---------------|-----------------|--------------------||
|-----------7-|-8----10----8--|-12--------------|-(12)-----------7---||
|-9-------9---|---------------|-----------------|------------9-------||
|-------------|---------------|-----------------|--------------------||
|-------------|---------------|-----------------|--------------------||
|-------------|---------------|-----------------|--------------------||


   Pre-Chorus
    E5
       PM---------------------------
    E  S S S S S S S S S S S S S S
||---------------------------------|
||o--------------------------------|
||---------------------------------|
||--9------------------------------|
||o-7--7-7-7-7-7-7-7-7-7-7-7-7-7-7-|
||---------------------------------|
|
|   H.                     Q
||---------------------------------|
||o-8----------------------7-------|
||---------------------------------|
||---------------------------------|
||o--------------------------------|
||---------------------------------|


                                     G5
 --------------------------------|       PM-------------------------|
  S S S S S S S S S S S S  S S S S    E  S S S S S S S S S S  S S S S
|----------------------------------|-----------------------------------|
|----------------------------------|-----------------------------------|
|----------------------------------|-----------------------------------|
|----------------------------------|-----------------------------------|
|-7-7-7-7-7-7-7-7-7-7-7-7--7-7-7-7-|--5--------------------------------|
|----------------------------------|--3--3-3-3-3-3-3-3-3-3-3--3-3-3-3--|
|
| H               Q        Q          H.                      Q
|----------------------------------|-----------------------------------|
|-----------------8-------10-------|-12----------------------10--------|
|-9--------------------------------|-----------------------------------|
|----------------------------------|-----------------------------------|
|----------------------------------|-----------------------------------|
|----------------------------------|-----------------------------------|


                                    1.
                                    D5
  PM----------------------------|       PM---------------------------
  S S S S S S S S S S S S S S S S    E  S S S S S S S S S S S S S S
|---------------------------------|---------------------------------|
|---------------------------------|---------------------------------|
|---------------------------------|---------------------------------|
|---------------------------------|--7------------------------------|
|---------------------------------|--5--5-5-5-5-5-5-5-5-5-5-5-5-5-5-|
|-3-3-3-3-3-3-3-3-3-3-3-3-3-3-3-3-|---------------------------------|
|
| H               Q       Q          H.                     Q
|---------------------------------|---------------------------------|
|-8---------------8-------8-------|-10----------------------8-------|
|---------------------------------|---------------------------------|
|---------------------------------|---------------------------------|
|---------------------------------|---------------------------------|
|---------------------------------|---------------------------------|


 -------------------------------|
  S S S S S S S S S S S S S S S S
|----------------------------------|
|----------------------------------|
|----------------------------------|
|----------------------------------|
|-5-5-5-5-5-5-5-5-5-5-5-5-5-5-5-5--|
|----------------------------------|
|
| H               Q       Q
|----------------------------------|
|-7---------------7-------7--------|
|----------------------------------|
|----------------------------------|
|----------------------------------|
|----------------------------------|


  E5
  E  S S S S S S S S S S S S S S   H.        Q
|--------------------------------|----------------||
|--------------------------------|---------------o||
|--------------------------------|----------------||
|-9------------------------------|-9--------------||
|-7--7-7-7-7-7-7-7-7-7-7-7-7-7-7-|-7-------------o||
|--------------------------------|----------12\---||
|
| H.                     Q         H     Q   Q
|--------------------------------|----------------||
|-8----------------------7-------|-----------7---o||
|--------------------------------|-9-----9--------||
|--------------------------------|----------------||
|--------------------------------|---------------o||
|--------------------------------|----------------||


  2.
  C5                          D5
  W            W               W            H      H
|------------|--------------|-----------|------------------||
|------------|--------------|-----------|------------------||
|-5----------|-5------------|--7--------|--19\----11\------||
|-5----------|-5------------|--7--------|------------------||
|-3----------|-3------------|--5--------|------------------||
|------------|--------------|-----------|------------------||
|
| H.      Q    Q   H     Q     W           +H      Q    Q
|------------|--------------|-----------|------------------||
|-8-------8--|-8--10----12--|-10--------|-(10)----12---13--||
|------------|--------------|-----------|------------------||
|------------|--------------|-----------|------------------||
|------------|--------------|-----------|------------------||
|------------|--------------|-----------|------------------||


 Chorus
  G5                D5                E5                B5
  Gtrs I, II
   W                 W                 W                 W
|-----------------|-----------------|-----------------|-----------------|
|-----------------|-----------------|-----------------|-----------------|
|-----------------|--7--------------|--9--------------|-----------------|
|--5--------------|--7--------------|--9--------------|--9--------------|
|--5--------------|--5--------------|--7--------------|--9--------------|
|--3--------------|-----------------|-----------------|--7--------------|
|
| Gtr IV
|  Q.    Q.    Q     Q.    Q.    Q     Q.    Q.    Q     Q.    Q.    Q
|-10----10--------|-----------------|-----------------|-----------------|
|-------------12--|-10----10--------|-12----10--------|-----------------|
|-----------------|-------------12--|-------------12--|-11----11----11--|
|-----------------|-----------------|-----------------|-----------------|
|-----------------|-----------------|-----------------|-----------------|
|-----------------|-----------------|-----------------|-----------------|


  C5                G5                C5                D5
   W                 W                 W                 W
|-----------------|-----------------|-----------------|---------------|
|-----------------|-----------------|-----------------|---------------|
|--5--------------|-----------------|--5--------------|--7------------|
|--5--------------|--5--------------|--5--------------|--7------------|
|--3--------------|--5--------------|--3--------------|--5------------|
|-----------------|--3--------------|-----------------|---------------|
|
|  Q.    Q.    Q     Q.    Q.    Q     Q.    Q.    Q     H     Q   Q
|-----------------|-----------------|-----------------|---------------|
|-------------10--|-12----10--------|-------10----12--|-10----12--13--|
|-12----12--------|-------------12--|-12--------------|---------------|
|-----------------|-----------------|-----------------|---------------|
|-----------------|-----------------|-----------------|---------------|
|-----------------|-----------------|-----------------|---------------|


  G5                               D5
      PM----|     PM----|    PM|       PM----|     PM----|    PM|
   E  S S S S  E  S S S S  E S S    E  S S S S  E  S S S S  E S S
|--------------------------------|--------------------------------|
|--------------------------------|--------------------------------|
|--------------------------------|--------------------------------|
|--------------------------------|--7-----------7-----------7-----|
|--5-----------5-----------5-----|--5--5-5-5-5--5--5-5-5-5--5-5-5-|
|--3--3-3-3-3--3--3-3-3-3--3-3-3-|--------------------------------|
|
|  Q.          Q.          Q        Q.          Q.          Q
|-10----------10-----------------|--------------------------------|
|-------------------------12-----|-10----------10-----------------|
|--------------------------------|-------------------------12-----|
|--------------------------------|--------------------------------|
|--------------------------------|--------------------------------|
|--------------------------------|--------------------------------|


  E5                               B5
      PM----|     PM----|    PM|       PM----|     PM----|    PM|
   E  S S S S  E  S S S S  E S S    E  S S S S  E  S S S S  E S S
|--------------------------------|-----------------------------------|
|--------------------------------|-----------------------------------|
|--------------------------------|-----------------------------------|
|--9-----------9-----------9-----|-----------------------------------|
|--7--7-7-7-7--7--7-7-7-7--7-7-7-|--9-----------9-----------9--------|
|--------------------------------|--7--7-7-7-7--7--7-7-7-7--7-7-7----|
|
|  Q.          Q.          Q        Q.          Q.          Q
|--------------------------------|-----------------------------------|
|-12----------10-----------------|-----------------------------------|
|-------------------------12-----|-11----------11----------11--------|
|--------------------------------|-----------------------------------|
|--------------------------------|-----------------------------------|
|--------------------------------|-----------------------------------|


  C5                               G5
      PM----|     PM----|    PM|       PM----|     PM----|    PM|
   E  S S S S  E  S S S S  E S S    E  S S S S  E  S S S S  E S S
|--------------------------------|--------------------------------|
|--------------------------------|--------------------------------|
|--------------------------------|--------------------------------|
|--5-----------5-----------5-----|--------------------------------|
|--3--3-3-3-3--3--3-3-3-3--3-3-3-|--5-----------5-----------5-----|
|--------------------------------|--3--3-3-3-3--3--3-3-3-3--3-3-3-|
|
|  Q.          Q.          Q        Q.          Q.          Q
|--------------------------------|--------------------------------|
|-------------------------10-----|-12----------10-----------------|
|-12----------12-----------------|-------------------------12-----|
|--------------------------------|--------------------------------|
|--------------------------------|--------------------------------|
|--------------------------------|--------------------------------|


                                                         To Coda
  C5                               D5
      PM----|     PM----|    PM|       PM----|     PM----|    PM|
   E  S S S S  E  S S S S  E S S    E  S S S S  E  S S S S  E S S
|--------------------------------|-----------------------------------||
|--------------------------------|-----------------------------------||
|--------------------------------|-----------------------------------||
|--5-----------5-----------5-----|--7-----------7-----------7--------||
|--3--3-3-3-3--3--3-3-3-3--3-3-3-|--5--5-5-5-5--5--5-5-5-5--5-5-5----||
|--------------------------------|-----------------------------------||
|
|  Q.          Q.          Q        Q.          Q.          Q
|--------------------------------|-----------------------------------||
|-------------10----------12-----|-10--------------------------------||
|-12-----------------------------|-------------12----------11--------||
|--------------------------------|-----------------------------------||
|--------------------------------|-----------------------------------||
|--------------------------------|-----------------------------------||


        E5       E5        E5      E5          G5      G5        G5      G5
    Gtr V
    E E Q    E E Q     E E Q   E E Q      E  E Q   E E Q     E E Q   E E Q
    | | |    | | |     | | |   | | |      |  | |   | | |     | | |   | | |
    o / /    o / /     o / /   o / /      o  / /   o / /     o / /   o / /

    PM|      PM|       PM|     PM|        PM-|     PM|       PM|     PM|
    E E E E  E E E E   E E E E E E E E    E  E E E E E E E   E E E E E E E E
||-------------------|-----------------|-------------------|------------------|
||o------------------|-----------------|-------------------|------------------|
||-------------------|-----------------|-------------------|------------------|
||------4h5------4h5-|-----4h5-----4h5-|-------4h5-----4h5-|-----4h5-----4h5--|
||o------------------|-----------------|-------------------|------------------|
||--0-0------0-0-----|-0-0-----0-0-----|--3--3-----3-3-----|-3-3-----3-3------|
|
|   H        H         H       H         +H        H         H       H
||-------------------|-----------------|-----------7-------|-5----------------|
||o---------/8-------|-7---------------|-----------8-------|-7-------8--------|
||--9-------/9-------|-7-------9-------|-(9)---------------|---------7--------|
||--9----------------|---------9-------|-(9)---------------|------------------|
||o------------------|-----------------|-------------------|------------------|
||-------------------|-----------------|-------------------|------------------|
    H        H         H       H         +H        H         H       H


        D5      D5        D5      D5         C5
   E  E Q   E E Q     E E Q   E E Q      E E Q   Q.     E
   |  | |   | | |     | | |   | | |      | | |   |      |
   o  / /   o / /     o / /   o / /      o / /   /      o

   PM-|     PM|       PM|     PM|        PM|   PM     PM
   E  E E E E E E E   E E E E E E E E    E E E E E  E E E
|-------------------|-----------------|-------------------|
|-------------------|-----------------|-------------------|
|-------------------|-----------------|-------------------|
|--0--0-2h4-0-0-2h4-|-0-0-2h4-0-0-2h4-|------2---4--5---5-|
|-------------------|-----------------|--3-3---3------3---|
|-------------------|-----------------|-------------------|
|
| +H        H         H       Q   Q      H       Q    Q
|-----------5-------|-----------------|-------------------|
|-(8)-------7-------|-8-------7-------|----------7----8---|
|-(7)---------------|-7-----------7---|--9-------9----9---|
|-------------------|-----------------|-10----------------|
|-------------------|-----------------|-------------------|
|-------------------|-----------------|-------------------|
  +H        H         H       Q   Q      H       Q    Q


                      B5
  +E     Q        E    Q        Q
   |     |        |    |        |
   /     o        o    /        /

   PM         PM
   E     E    E   E   +E    E   Q
|----------------------------------------||
|---------------------------------------o||
|----------------------------------------||
|--------4--------4---(4)---5---4--------||
|--2----------2-------------------------o||
|----------------------------------------||
|
|  S  S  S  S S S S S  S  S S S S S E
|----------------------------------------||
|-10-10-10-10-8-8-8-8--7--7-8-8-7-7-----o||
|--7--7--7--7-5-5-5-5--4--4-4-4-4-4-7----||
|----------------------------------------||
|---------------------------------------o||
|----------------------------------------||
   S  S  S  S S S S S  S  S S S S S E


 Verse
  E5
  Gtrs I, II
     PM--------|     PM|   PM|   PM     PM--------|     PM|   PM|   PM
  Q  E E E E E E   E E E E E E E E   Q  E E E E E E   E E E E E E E E
|----------------|-----------------|----------------|-----------------|
|----------------|-----------------|----------------|-----------------|
|-9--------------|-9-----9-----9---|-9--------------|-9-----9-----9---|
|-9--------------|-9-----9-----9---|-9--------------|-9-----9-----9---|
|-7--7-7-7-7-7-7-|-7-7-7-7-7-7-7-7-|-7--7-7-7-7-7-7-|-7-7-7-7-7-7-7-7-|
|----------------|-----------------|----------------|-----------------|


                                       D.S. al Coda
  D5                                  C5         D5
    PM----------|     PM|   PM|   PM
  E E E E E E E E   E E E E E E E E   W          W
|-----------------|-----------------|----------|-------||
|-----------------|-----------------|----------|-------||
|-7---------------|-7-----7-----7---|-5--------|-7-----||
|-7---------------|-7-----7-----7---|-5--------|-7-----||
|-5-5-5-5-5-5-5-5-|-5-5-5-5-5-5-5-5-|-3--------|-5-----||
|-----------------|-----------------|----------|-------||


   Solo - Herman
    &
    E5
    Gtr I
     T                       T
     S  S  S  S  S  S  S  S  S  S  S  S  S  S  S  S
||--20p19p15----------15h19-20p19p15----------15h19-|
||o----------17----17----------------17----17-------|
||--------------16----------------------16----------|
||--------------------------------------------------|
||o-------------------------------------------------|
||--------------------------------------------------|
|
|   Gtr II
|    Q           Q           Q           Q
||--------------------------------------------------|
||o-------------------------------------------------|
||---9----------------------------------------------|
||---9----------------------------------------------|
||o--7----------------------------------------------|
||---0----------------------------------------------|


   T                       T           T
   S  S  S  S  S  S  S  S  S  S  S  S  S  S  S  S
|-20p19p15----------15h19-22p19p15h19-22p19p15h19--|
|----------17----17--------------------------------|
|-------------16-----------------------------------|
|--------------------------------------------------|
|--------------------------------------------------|
|--------------------------------------------------|
|
|  W
|--------------------------------------------------|
|--------------------------------------------------|
|--------------------------------------------------|
|--------------------------------------------------|
|--------------------------------------------------|
|--------------------------------------------------|


   T                       T
   S  S  S  S  S  S  S  S  S  S  S  S  S  S  S  S
|-20p19p15----------15h19-20p19p15----------15h19-|
|----------17----17----------------17----17-------|
|-------------16----------------------16----------|
|-------------------------------------------------|
|-------------------------------------------------|
|-------------------------------------------------|
|
|  Q           Q           H
|-------------------------------------------------|
|-------------------------------------------------|
|--9----------------------------------------------|
|--9----------------------------------------------|
|--7----------------------------------------------|
|--0----------------------------------------------|


                                D5
   T                       T           T
   S  S  S  S  S  S  S  S  S  S  S  S  S  S  S  S
|-20p19p15----------15h19-22p19p15h19-22p19p15h19-|
|----------17----17-------------------------------|
|-------------16----------------------------------|
|-------------------------------------------------|
|-------------------------------------------------|
|-------------------------------------------------|
|
|  H                       E     Q.
|-------------------------------------------------|
|-------------------------------------------------|
|--------------------------------7----------------|
|--------------------------------7----------------|
|--------------------------------5----------------|
|-------------------------------------------------|


  E5
   T                       T
   S  S  S  S  S  S  S  S  S  S  S  S  S  S  S  S
|-20p19p15----------15h19-20p19p15----------15h19-|
|----------17----17----------------17----17-------|
|-------------16----------------------16----------|
|-------------------------------------------------|
|-------------------------------------------------|
|-------------------------------------------------|
|
|  Q           Q           Q           Q
|-------------------------------------------------|
|-------------------------------------------------|
|--9----------------------------------------------|
|--9----------------------------------------------|
|--7----------------------------------------------|
|--0----------------------------------------------|


   T                       T           T
   S  S  S  S  S  S  S  S  S  S  S  S  S  S  S  S
|-20p19p15----------15h19-22p19p15h19-22p19p15h19-|
|----------17----17-------------------------------|
|-------------16----------------------------------|
|-------------------------------------------------|
|-------------------------------------------------|
|-------------------------------------------------|
|
|  W
|-------------------------------------------------|
|-------------------------------------------------|
|-------------------------------------------------|
|-------------------------------------------------|
|-------------------------------------------------|
|-------------------------------------------------|


  1.
  C5
   T           T        T        T        T
   S  S  S  S  S  S  S  S  S  S  S  S  S  S  S  S
|-20p19p15----------------------------------------|
|----------17-20p17-------------------------------|
|-------------------16-21p16----------------------|
|----------------------------17-21p17-------------|
|-------------------------------------19-22p19-19-|
|-------------------------------------------------|
|
|  W
|-------------------------------------------------|
|-------------------------------------------------|
|--5----------------------------------------------|
|--5----------------------------------------------|
|--3----------------------------------------------|
|-------------------------------------------------|


  D5
                  T                       T
   |--3--|
   S  S  S  S  S  S  S  S  S  S  S  S  S  S  S  S  S
|----------15h19-20p19p15----------15h19-24p19p15------||
|-------17----------------17----17----------------17--o||
|----16----------------------16------------------------||
|-17---------------------------------------------------||
|-----------------------------------------------------o||
|------------------------------------------------------||
|
|  W
|------------------------------------------------------||
|-----------------------------------------------------o||
|--7---------------------------------------------------||
|--7---------------------------------------------------||
|--5--------------------------------------------------o||
|------------------------------------------------------||


  2.
  C5
   T           T        T        T        T     T
   S  S  S  S  S  S  S  S  S  S  S  S  S  S  S  S
|-20p19p15----------------------------------------|
|----------17-20p17-------------------------------|
|-------------------16-21p16----------------------|
|----------------------------17-21p17-------------|
|-------------------------------------19-22p19-22p|
|-------------------------------------------------|
|
|  W
|-------------------------------------------------|
|-------------------------------------------------|
|--5----------------------------------------------|
|--5----------------------------------------------|
|--3----------------------------------------------|
|-------------------------------------------------|


  D5
         T        T        T           T
   S  S  S  S  S  S  S  S  S  S  S  S  S  S  S  S
|-------------------------------15h19-22p19p15----||
|----------------------17-20p17----------------17-||
|-------------16-21p16----------------------------||
|----17-21p17-------------------------------------||
|-19----------------------------------------------||
|-------------------------------------------------||
|
|  W
|-------------------------------------------------||
|-------------------------------------------------||
|--7----------------------------------------------||
|--7----------------------------------------------||
|--5----------------------------------------------||
|-------------------------------------------------||


    E5
     T                       T
     S  S  S  S  S  S  S  S  S  S  S  S  S  S  S  S
||--20p19p15----------15h19-20p19p15----------15h19-|
||o----------17----17----------------17----17-------|
||--------------16----------------------16----------|
||--------------------------------------------------|
||o-------------------------------------------------|
||--------------------------------------------------|
|
|   Gtr IV
|    T                       T
|    S  S  S  S  S  S  S  S  S  S  S  S  S  S  S  S
||--17p15p12----------12h15-17p15p12----------12h15-|
||o----------12----12----------------12----12-------|
||--------------12----------------------12----------|
||--------------------------------------------------|
||o-------------------------------------------------|
||--------------------------------------------------|
|
|   Gtr II
|          PM------|         PM------|         PM----
|    E     S  S  S  S  E     S  S  S  S  E     S  S
||--------------------------------------------------|
||o-------------------------------------------------|
||--------------------------------------------------|
||---9-----------------9-----------------9----------|
||o--7-----7--7--7--7--7-----7--7--7--7--7-----7--7-|
||--------------------------------------------------|


   T                       T           T
   S  S  S  S  S  S  S  S  S  S  S  S  S  S  S  S
|-20p19p15----------15h19-22p19p15h19-22p19p15h19--|
|----------17----17--------------------------------|
|-------------16-----------------------------------|
|--------------------------------------------------|
|--------------------------------------------------|
|--------------------------------------------------|
|
|  T                       T           T
|  S  S  S  S  S  S  S  S  S  S  S  S  S  S  S  S
|-17p15p12----------12h15-19p15p12h15-19p15p12h15--|
|----------12----12--------------------------------|
|-------------12-----------------------------------|
|--------------------------------------------------|
|--------------------------------------------------|
|--------------------------------------------------|
|
|----------------------------------------------|
|  S  S  S  S  S  S  S  S  S  S  S  S  S  S  S  S
|--------------------------------------------------|
|--------------------------------------------------|
|--------------------------------------------------|
|--------------------------------------------------|
|--7--7--7--7--7--7--7--7--7--7--7--7--7--7--7--7--|
|--------------------------------------------------|


  1.
   T                       T
   S  S  S  S  S  S  S  S  S  S  S  S  S  S  S  S
|-20p19p15----------15h19-20p19p15----------15h19-|
|----------17----17----------------17----17-------|
|-------------16----------------------16----------|
|-------------------------------------------------|
|-------------------------------------------------|
|-------------------------------------------------|
|
|  T                       T
|  S  S  S  S  S  S  S  S  S  S  S  S  S  S  S  S
|-17p15p12----------12h15-17p15p12----------12h15-|
|----------12----12----------------12----12-------|
|-------------12----------------------12----------|
|-------------------------------------------------|
|-------------------------------------------------|
|-------------------------------------------------|
|
|        PM------|         PM------|         PM----
|  E     S  S  S  S  E     S  S  S  S  E     S  S
|-------------------------------------------------|
|-------------------------------------------------|
|-------------------------------------------------|
|--9-----------------9-----------------9----------|
|--7-----7--7--7--7--7-----7--7--7--7--7-----7--7-|
|-------------------------------------------------|


                                       D5
   T                       T            T
   S  S  S  S  S  S  S  S  S   S  S  S  S   S  S  S
|-20p19p15----------15h19-22/p19p15h19-22/p19p15h19-|
|----------17----17---------------------------------|
|-------------16------------------------------------|
|---------------------------------------------------|
|---------------------------------------------------|
|---------------------------------------------------|
|
|  T                       T            T
|  S  S  S  S  S  S  S  S  S   S  S  S  S   S  S  S
|-17p15p12----------12h15-19/p15p12h15-19/p15p12h15-|
|----------12----12---------------------------------|
|-------------12------------------------------------|
|---------------------------------------------------|
|---------------------------------------------------|
|---------------------------------------------------|
|
|----|         PM-------------------|
|  S  S  E     S  S  S  S  S   S  S  S  Q
|---------------------------------------------------|
|---------------------------------------------------|
|---------------------------------------------------|
|--------9------------------------------7-----------|
|--7--7--7-----7--7--7--7--7---7--7--7--5-----------|
|---------------------------------------------------|


  E5
   T                       T
   S  S  S  S  S  S  S  S  S  S  S  S  S  S  S  S
|-20p19p15----------15h19-20p19p15----------15h19-|
|----------17----17----------------17----17-------|
|-------------16----------------------16----------|
|-------------------------------------------------|
|-------------------------------------------------|
|-------------------------------------------------|
|
|  T                       T
|  S  S  S  S  S  S  S  S  S  S  S  S  S  S  S  S
|-17p15p12----------12h15-17p15p12----------12h15-|
|----------12----12----------------12----12-------|
|-------------12----------------------12----------|
|-------------------------------------------------|
|-------------------------------------------------|
|-------------------------------------------------|
|
|        PM------|         PM------|         PM----
|  E     S  S  S  S  E     S  S  S  S  E     S  S
|-------------------------------------------------|
|-------------------------------------------------|
|-------------------------------------------------|
|--9-----------------9-----------------9----------|
|--7-----7--7--7--7--7-----7--7--7--7--7-----7--7-|
|-------------------------------------------------|


   T                       T           T
   S  S  S  S  S  S  S  S  S  S  S  S  S  S  S  S
|-20p19p15----------15h19-22p19p15h19-22p19p15h19-|
|----------17----17-------------------------------|
|-------------16----------------------------------|
|-------------------------------------------------|
|-------------------------------------------------|
|-------------------------------------------------|
|
|  T                       T           T
|  S  S  S  S  S  S  S  S  S  S  S  S  S  S  S  S
|-17p15p12----------12h15-19p15p12h15-19p15p12h15-|
|----------12----12-------------------------------|
|-------------12----------------------------------|
|-------------------------------------------------|
|-------------------------------------------------|
|-------------------------------------------------|
|
|----|         PM------------------------------|
|  S  S  E     S  S  S  S  S  S  S  S  S  S  S  S
|-------------------------------------------------|
|-------------------------------------------------|
|-------------------------------------------------|
|--------9----------------------------------------|
|--7--7--7-----7--7--7--7--7--7--7--7--7--7--7--7-|
|-------------------------------------------------|


  C5
   T           T        T        T        T     T
   S  S  S  S  S  S  S  S  S  S  S  S  S  S  S  S
|-20p19p15----------------------------------------|
|----------17-20p17-------------------------------|
|-------------------16-21p16----------------------|
|----------------------------17-21p17-------------|
|-------------------------------------19-22p19-22p|
|-------------------------------------------------|
|
|  T           T        T        T        T     T
|  S  S  S  S  S  S  S  S  S  S  S  S  S  S  S  S
|-17p15p12----------------------------------------|
|----------13-17p13-------------------------------|
|-------------------12-17p12----------------------|
|----------------------------14-17p14-------------|
|-------------------------------------15-19p15-19p|
|-------------------------------------------------|
|
|  W
|-------------------------------------------------|
|-------------------------------------------------|
|--5----------------------------------------------|
|--5----------------------------------------------|
|--3----------------------------------------------|
|-------------------------------------------------|


  D5
         T        T        T           T
   S  S  S  S  S  S  S  S  S  S  S  S  S  S  S  S
|-------------------------------15h19-22p19p15-----||
|----------------------17-20p17----------------17-o||
|-------------16-21p16-----------------------------||
|----17-21p17--------------------------------------||
|-19----------------------------------------------o||
|--------------------------------------------------||
|
|        T        T        T           T
|  S  S  S  S  S  S  S  S  S  S  S  S  S  S  S  S
|-------------------------------12h15-17p15p12-----||
|----------------------13-17p13----------------13-o||
|-------------12-17p12-----------------------------||
|----14-17p14--------------------------------------||
|-15----------------------------------------------o||
|--------------------------------------------------||
|
|  W
|--------------------------------------------------||
|-------------------------------------------------o||
|--7-----------------------------------------------||
|--7-----------------------------------------------||
|--5----------------------------------------------o||
|--------------------------------------------------||


  2.
  E5
   T                       T
   S  S  S  S  S  S  S  S  S  S  S  S  S  S  S  S
|-20p19p15----------15h19-20p19p15----------15h19-|
|----------17----17----------------17----17-------|
|-------------16----------------------16----------|
|-------------------------------------------------|
|-------------------------------------------------|
|-------------------------------------------------|
|
|  T                       T
|  S  S  S  S  S  S  S  S  S  S  S  S  S  S  S  S
|-17p15p12----------12h15-17p15p12----------12h15-|
|----------12----12----------------12----12-------|
|-------------12----------------------12----------|
|-------------------------------------------------|
|-------------------------------------------------|
|-------------------------------------------------|
|
|        PM------|         PM------|         PM----
|  E     S  S  S  S  E     S  S  S  S  E     S  S
|-------------------------------------------------|
|-------------------------------------------------|
|-------------------------------------------------|
|--9-----------------9-----------------9----------|
|--7-----7--7--7--7--7-----7--7--7--7--7-----7--7-|
|-------------------------------------------------|


                                       D5
   T                       T            T
   S  S  S  S  S  S  S  S  S   S  S  S  S   S  S  S
|-20p19p15----------15h19-24/p19p15h19-24/p19p15h19-|
|----------17----17---------------------------------|
|-------------16------------------------------------|
|---------------------------------------------------|
|---------------------------------------------------|
|---------------------------------------------------|
|
|  T                       T            T
|  S  S  S  S  S  S  S  S  S   S  S  S  S   S  S  S
|-17p15p12----------12h15-20/p15p12h15-20/p15p12h15-|
|----------12----12---------------------------------|
|-------------12------------------------------------|
|---------------------------------------------------|
|---------------------------------------------------|
|---------------------------------------------------|
|
|----|         PM-------------------|
|  S  S  E     S  S  S  S  S   S  S  S  Q
|---------------------------------------------------|
|---------------------------------------------------|
|---------------------------------------------------|
|--------9------------------------------7-----------|
|--7--7--7-----7--7--7--7--7---7--7--7--5-----------|
|---------------------------------------------------|


  E5
   T                       T
   S  S  S  S  S  S  S  S  S  S  S  S  S  S  S  S
|-20p19p15----------15h19-20p19p15----------15h19-|
|----------17----17----------------17----17-------|
|-------------16----------------------16----------|
|-------------------------------------------------|
|-------------------------------------------------|
|-------------------------------------------------|
|
|  T                       T
|  S  S  S  S  S  S  S  S  S  S  S  S  S  S  S  S
|-17p15p12----------12h15-17p15p12----------12h15-|
|----------12----12----------------12----12-------|
|-------------12----------------------12----------|
|-------------------------------------------------|
|-------------------------------------------------|
|-------------------------------------------------|
|
|        PM------|         PM------|         PM----
|  E     S  S  S  S  E     S  S  S  S  E     S  S
|-------------------------------------------------|
|-------------------------------------------------|
|-------------------------------------------------|
|--9-----------------9-----------------9----------|
|--7-----7--7--7--7--7-----7--7--7--7--7-----7--7-|
|-------------------------------------------------|


   T                       T           T
   S  S  S  S  S  S  S  S  S  S  S  S  S  S  S  S
|-20p19p15----------15h19-22p19p15h19-22p19p15h19-|
|----------17----17-------------------------------|
|-------------16----------------------------------|
|-------------------------------------------------|
|-------------------------------------------------|
|-------------------------------------------------|
|
|  T                       T           T
|  S  S  S  S  S  S  S  S  S  S  S  S  S  S  S  S
|-17p15p12----------12h15-19p15p12h15-19p15p12h15-|
|----------12----12-------------------------------|
|-------------12----------------------------------|
|-------------------------------------------------|
|-------------------------------------------------|
|-------------------------------------------------|
|
|----|         PM------------------------------|
|  S  S  E     S  S  S  S  S  S  S  S  S  S  S  S
|-------------------------------------------------|
|-------------------------------------------------|
|-------------------------------------------------|
|--------9----------------------------------------|
|--7--7--7-----7--7--7--7--7--7--7--7--7--7--7--7-|
|-------------------------------------------------|


  C5
   T           T        T        T        T     T
   S  S  S  S  S  S  S  S  S  S  S  S  S  S  S  S
|-20p19p15----------------------------------------|
|----------17-20p17-------------------------------|
|-------------------16-21p16----------------------|
|----------------------------17-21p17-------------|
|-------------------------------------19-22p19-22p|
|-------------------------------------------------|
|
|  T           T        T        T        T     T
|  S  S  S  S  S  S  S  S  S  S  S  S  S  S  S  S
|-17p15p12----------------------------------------|
|----------13-17p13-------------------------------|
|-------------------12-17p12----------------------|
|----------------------------14-17p14-------------|
|-------------------------------------15-19p15-19p|
|-------------------------------------------------|
|
|  W
|-------------------------------------------------|
|-------------------------------------------------|
|--5----------------------------------------------|
|--5----------------------------------------------|
|--3----------------------------------------------|
|-------------------------------------------------|


  D5
         T        T        T           T
   S  S  S  S  S  S  S  S  S  S  S  S  S  S  S  S
|-------------------------------15h19-22p19p15----||
|----------------------17-20p17----------------17-||
|-------------16-21p16----------------------------||
|----17-21p17-------------------------------------||
|-19----------------------------------------------||
|-------------------------------------------------||
|
|        T        T        T           T
|  S  S  S  S  S  S  S  S  S  S  S  S  S  S  S  S
|-------------------------------12h15-17p15p12----||
|----------------------13-17p13----------------13-||
|-------------12-17p12----------------------------||
|----14-17p14-------------------------------------||
|-15----------------------------------------------||
|-------------------------------------------------||
|
|  W
|-------------------------------------------------||
|-------------------------------------------------||
|--7----------------------------------------------||
|--7----------------------------------------------||
|--5----------------------------------------------||
|-------------------------------------------------||


 Solo - Sam
  A5                  C5
  Gtr II
  ~~~~~~~~~~~~~~~~~~~~~~~~      ~~
  Q.    Q.    Q        E. S  E  Q   E  E  E
|-------------------|-----------------------|
|-------7b8---8b10--|-12----13-12--10----10-|
|-7b9---------------|-----------------12----|
|-------------------|-----------------------|
|-------------------|-----------------------|
|-------------------|-----------------------|
|
| Gtr I
| W                    W
|-------------------|-----------------------|
|-------------------|-----------------------|
|-------------------|--5--------------------|
|-7-----------------|--5--------------------|
|-7-----------------|--3--------------------|
|-5-----------------|-----------------------|


  E5
            ~~                       ~~
   E  E  E  Q   E  E  E    E   E  E  Q   E  E  E
|-----------------------|-12--12-10-12--12-15-12-|
|-12-12-10-12--12-15-12-|------------------------|
|-----------------------|------------------------|
|-----------------------|------------------------|
|-----------------------|------------------------|
|-----------------------|------------------------|
|
|  W                      +W
|-----------------------|------------------------|
|-----------------------|------------------------|
|--9--------------------|-(9)--------------------|
|--9--------------------|-(9)--------------------|
|--7--------------------|-(7)--------------------|
|-----------------------|------------------------|


  A5                     C5
   ~~~~~~~~~~                       ~~
   Q.      Q   E  E  E    Q      E  Q   E  E  E
|-15b17---17--17-17-15-|-17b19--17-15-----------|
|----------------------|---------------17-15-17-|
|----------------------|------------------------|
|----------------------|------------------------|
|----------------------|------------------------|
|----------------------|------------------------|
|
|  W                      W
|----------------------|------------------------|
|----------------------|------------------------|
|----------------------|--5---------------------|
|--7-------------------|--5---------------------|
|--7-------------------|--3---------------------|
|--5-------------------|------------------------|


  B5
                                                         ~~~~~~~~       ~~~
   S  S  S  S  S  S  S  S  S  S  S  S  S  S  S  S    E   E  E  E  E  E  E E
|-14-14-------12-12-------------------------------|--------------------------|
|-------15-15-------13-13-15-15-12-12-13-13-------|-13--12-12-10----10s13s5--|
|-------------------------------------------14-14-|--------------12----------|
|-------------------------------------------------|--------------------------|
|-------------------------------------------------|--------------------------|
|-------------------------------------------------|--------------------------|
|
|  W                                                +W
|-------------------------------------------------|--------------------------|
|-------------------------------------------------|--------------------------|
|-------------------------------------------------|--------------------------|
|--9----------------------------------------------|-(9)----------------------|
|--9----------------------------------------------|-(9)----------------------|
|--7----------------------------------------------|-(7)----------------------|


 Solo - Herman
  E5
  Gtr I
   T                               T              T
   S  S  S   S    S    S    S   S  S  S  S  S  S  S  S  S
|-20p19p15-----------------15h=19-20p19p15----------------|
|-----------17--------17-------------------17-------------|
|----------------16---------------------------16h21p16----|
|------------------------------------------------------17-|
|---------------------------------------------------------|
|---------------------------------------------------------|
|
| Gtr II
|        PM----------|             PM------|         PM----
|  E     S   S    S    S    E      S  S  S  S  E     S  S
|---------------------------------------------------------|
|-24s===15-(15)-(15)-(15)-(15)----------------------------|
|---------------------------------------------------------|
|--9------------------------9------------------9----------|
|--7-----7---7----7----7----7------7--7--7--7--7-----7--7-|
|---------------------------------------------------------|


   T              T                                T                       T
   S  S  S  S  S  S  S  S  S  S  E     Q           S  S  S  S  S  S  S  S  S  S  S  S  S  S  S  S
|-20p19p15---------------------------[19]-------|-20p19p15----------15h19-20p19p15----------15h19-|
|----------17-----------------------------------|----------17----17----------------17----17-------|
|-------------16h21p16h17p16h17p16--------------|-------------16----------------------16----------|
|-----------------------------------------------|-------------------------------------------------|
|-----------------------------------------------|-------------------------------------------------|
|-----------------------------------------------|-------------------------------------------------|
|
|----|         PM-----------------------------|          PM------|         PM------|         PM|
|  S  S  E     S  S  S  S  S  S  S S   S  S S S    E     S  S  S  S  E     S  S  S  S  E     S  S
|-----------------------------------------------|-------------------------------------------------|
|-----------------------------------------------|-------------------------------------------------|
|-----------------------------------------------|-------------------------------------------------|
|--------9--------------------------------------|--9-----------------9-----------------9----------|
|--7--7--7-----7--7--7--7--7--7--7-7---7--7-7-7-|--7-----7--7--7--7--7-----7--7--7--7--7-----7--7-|
|-----------------------------------------------|-------------------------------------------------|


                                    D5
   T     T        T
   S  S  S  S  S  S  S  S  E    E     Q
|-20p15-22p15-----------------------[17]b19--|
|-------------17-19p17-----------------------|
|----------------------19p17---16------------|
|--------------------------------------------|
|--------------------------------------------|
|--------------------------------------------|
|
|  PM|         PM-----------------|
|  S  S  E     S  S  S  S  S S  S S   Q
|--------------------------------------------|
|--------------------------------------------|
|--------------------------------------------|
|--------9----------------------------7------|
|--7--7--7-----7--7--7--7--7-7--7-7---5------|
|--------------------------------------------|


  E5
   T
   S  S  S  S  S  S  E  E    S  S  S  S  E      E    S  S  S  S  E    E    E     Q
|-20p19p15----------12s20s==12----------12s==|=19s==12----------12s==17s==12---[19]-------|
|----------17----17------------17----17------|---------17----17---------------------------|
|-------------16------------------16---------|------------16------------------------------|
|--------------------------------------------|--------------------------------------------|
|--------------------------------------------|--------------------------------------------|
|--------------------------------------------|--------------------------------------------|
|
|        PM------|      PM-----|         PM-------|        PM---------------------------|
|  E     S  S  S  S  E  S S  S  S  E     S S    S S  E     S  S  S S  S S  S S   S  S S S
|--------------------------------------------|--------------------------------------------|
|--------------------------------------------|--------------------------------------------|
|--------------------------------------------|--------------------------------------------|
|--9-----------------9-------------9---------|-------9------------------------------------|
|--7-----7--7--7--7--7--7-7--7--7--7-----7-7-|--7-7--7-----7--7--7-7--7-7--7-7---7--7-7-7-|
|--------------------------------------------|--------------------------------------------|


  C5                                                D5
                                 T              T                T
   S  S  S  S  S  S  S  S  S  S  S  S  S  S  S  S    S  S  S  S  S  S  S  S   E   E   Q
|-19p15----------15h17p15-------------------------|----------------------12S[19]-12S[19]--|
|-------17----17----------17----20p17-------------|---------------------------------------|
|----------16----------------16-------16----16-21p|=16------------------------------------|
|----------------------------------------17-------|----17----17-21p17---------------------|
|-------------------------------------------------|-------19----------19------------------|
|-------------------------------------------------|---------------------------------------|
|
|  W                                                 W
|-------------------------------------------------|---------------------------------------|
|-------------------------------------------------|---------------------------------------|
|--5----------------------------------------------|--7------------------------------------|
|--5----------------------------------------------|--7------------------------------------|
|--3----------------------------------------------|--5------------------------------------|
|-------------------------------------------------|---------------------------------------|


  E5
   T                       T
   S  S  S  S  S  S  S  S  S  S  S  S  S  S  S  S
|-20p19p15----------15h19-20p15h19----------15h19--|
|----------17----17----------------17----17--------|
|-------------16----------------------16-----------|
|--------------------------------------------------|
|--------------------------------------------------|
|--------------------------------------------------|
|
|        PM------|         PM------|         PM|
|  E     S  S  S  S  E     S  S  S  S  E     S  S
|--------------------------------------------------|
|--------------------------------------------------|
|--------------------------------------------------|
|--9-----------------9-----------------9-----------|
|--7-----7--7--7--7--7-----7--7--7--7--7-----7--7--|
|--------------------------------------------------|


   ~~~~~~~~~~~~~~~~~~~~~~~~~~~~
   E    E   E    E     E     E     Q
|-20S==19S(15)-------------------[19]-------|
|----------20S==17S==(13)-------------------|
|---------------------17----16--------------|
|-------------------------------------------|
|-------------------------------------------|
|-------------------------------------------|
|
|  PM|      PM----------------------------|
|  S S  E   S S  S S   S  S  S S   S  S S S
|-------------------------------------------|
|-------------------------------------------|
|-------------------------------------------|
|-------9-----------------------------------|
|--7-7--7---7-7--7-7---7--7--7-7---7--7-7-7-|
|-------------------------------------------|


                                                                                 D5
   T                       T                         ~~~~~~~~~~~~~~~~~~~~~~~~~~
   S  S  S  S  S  S  S  S  S  S  S  S  S  S  S  S    E    E  E    E    E     E     Q
|-20p19p15----------15h19-20p15h19----------15h19S|=14S==15S20S==15S==(8)--------[19]---|
|----------17----17----------------17----17-------|-------------------17S===16----------|
|-------------16----------------------16----------|-------------------------------------|
|-------------------------------------------------|-------------------------------------|
|-------------------------------------------------|-------------------------------------|
|-------------------------------------------------|-------------------------------------|
|
|        PM------|         PM------|         PM--------|     PM----------------|
|  E     S  S  S  S  E     S  S  S  S  E     S  S    S S  E  S S  S S  S  S  S S   Q
|-------------------------------------------------|-------------------------------------|
|-------------------------------------------------|-------------------------------------|
|-------------------------------------------------|-------------------------------------|
|--9-----------------9-----------------9----------|-------9------------------------7----|
|--7-----7--7--7--7--7-----7--7--7--7--7-----7--7-|--7-7--7--7-7--7-7--7--7--7-7---5----|
|-------------------------------------------------|-------------------------------------|


  E5
   T                       T
   S  S  S  S  S  S  S  S  S  S  S  S  S  S  S  S
|-20p19p15----------15h19-20p15h19----------15h19S|
|----------17----17----------------17----17-------|
|-------------16----------------------16----------|
|-------------------------------------------------|
|-------------------------------------------------|
|-------------------------------------------------|
|
|        PM------|         PM------|         PM----
|  E     S  S  S  S  E     S  S  S  S  E     S  S
|-------------------------------------------------|
|-------------------------------------------------|
|-------------------------------------------------|
|--9-----------------9-----------------9----------|
|--7-----7--7--7--7--7-----7--7--7--7--7-----7--7-|
|-------------------------------------------------|


   ~~~~~~~~~~~~
   E    E   E     E    S  S  S  S   Q
|-20S==19S(15)--------------------[19]--------|
|----------20S==(12)--------------------------|
|----------------16h==17p16h17p16-------------|
|---------------------------------------------|
|---------------------------------------------|
|---------------------------------------------|
|
|----|      PM-----------------------------|
|  S S  E   S S   S S  S  S  S  S   S  S S S
|---------------------------------------------|
|---------------------------------------------|
|---------------------------------------------|
|-------9-------------------------------------|
|--7-7--7---7-7---7-7--7--7--7--7---7--7-7-7--|
|---------------------------------------------|


  C5
   E  E  S  S  S  S  S  S  S  S  S  S  S  S
|-------17s19s14s21s14s12s17s15s17s12s10s15s|
|-19-20-------------------------------------|
|-------------------------------------------|
|-------------------------------------------|
|-------------------------------------------|
|-------------------------------------------|
|
|  W
|-------------------------------------------|
|-------------------------------------------|
|--5----------------------------------------|
|--5----------------------------------------|
|--3----------------------------------------|
|-------------------------------------------|


  D5
   S  S  S S  E   E    E   E   Q
|-14s15s10s9----(12)S[19]-12S[19]--||
|------------13--12----------------||
|----------------------------------||
|----------------------------------||
|----------------------------------||
|----------------------------------||
|
|  W
|----------------------------------||
|----------------------------------||
|--7-------------------------------||
|--7-------------------------------||
|--5-------------------------------||
|----------------------------------||


 Solo - Sam
  A5                   C5                      E5
  Gtr II
  ~~~                             ~~
  Q    E  Q   E  E E    Q      E  Q   E E  E   S S S S E E  S  S  S  S  E E
|--------------------|--------10-------------|------------------------------|
|------8-10--12-10-8-|-10b12-----12--10-8-10-|-8-8-8-8-8s5-12-12-12-12-12s5-|
|-7b9----------------|-----------------------|------------------------------|
|--------------------|-----------------------|------------------------------|
|--------------------|-----------------------|------------------------------|
|--------------------|-----------------------|------------------------------|
|
| Gtr I
| W                     W                      W
|--------------------|-----------------------|------------------------------|
|--------------------|-----------------------|------------------------------|
|--------------------|--5--------------------|-9----------------------------|
|-7------------------|--5--------------------|-9----------------------------|
|-7------------------|--3--------------------|-7----------------------------|
|-5------------------|-----------------------|------------------------------|


   T      T     T     T     T     T     T     T
   S   S  S  S  S  S  S  S  S  S  S  S  S  S  S  S
|-19p=15-19p15-20p15-19p15-19p15-19p15-20p15-19p15-|
|--------------------------------------------------|
|--------------------------------------------------|
|--------------------------------------------------|
|--------------------------------------------------|
|--------------------------------------------------|
|
| +W
|--------------------------------------------------|
|--------------------------------------------------|
|-(9)----------------------------------------------|
|-(9)----------------------------------------------|
|-(7)----------------------------------------------|
|--------------------------------------------------|


  A5
   T     T     T     T     T     T     T     T
   S  S  S  S  S  S  S  S  S  S  S  S  S  S  S  S
|-19p17-19p17-19p17-20p17-20p17-20p17-19p17-19p15-|
|-------------------------------------------------|
|-------------------------------------------------|
|-------------------------------------------------|
|-------------------------------------------------|
|-------------------------------------------------|
|
|  W
|-------------------------------------------------|
|-------------------------------------------------|
|-------------------------------------------------|
|--7----------------------------------------------|
|--7----------------------------------------------|
|--5----------------------------------------------|


  C5
   T     T     T     T     T     T     T     T
   S  S  S  S  S  S  S  S  S  S  S  S  S  S  S  S
|-17p15-17p15-17p15-19p15-19p15-19p15-17p15-17p15-|
|-------------------------------------------------|
|-------------------------------------------------|
|-------------------------------------------------|
|-------------------------------------------------|
|-------------------------------------------------|
|
|  W
|-------------------------------------------------|
|-------------------------------------------------|
|--5----------------------------------------------|
|--5----------------------------------------------|
|--3----------------------------------------------|
|-------------------------------------------------|


  B5
   T     T     T     T     T     T             T      T     T     T     T     T
   S  S  S  S  S  S  S  S  S  S  S  S  E  E    S   S  S  S  S  S  S  S  S  S  S  S  E  E
|-19p14-19p14-19p14-19p14-19p14-17p14S19s14-|---------------------------------------------||
|-------------------------------------------|-19p=12-19p12-19p12-19p12-19p12-17p12S19s12--||
|-------------------------------------------|---------------------------------------------||
|-------------------------------------------|---------------------------------------------||
|-------------------------------------------|---------------------------------------------||
|-------------------------------------------|---------------------------------------------||
|
|  W                                          +W
|-------------------------------------------|---------------------------------------------||
|-------------------------------------------|---------------------------------------------||
|-------------------------------------------|---------------------------------------------||
|--9----------------------------------------|-(9)-----------------------------------------||
|--9----------------------------------------|-(9)-----------------------------------------||
|--7----------------------------------------|-(7)-----------------------------------------||


 Solo - Herman
  E5
  Gtr I
              ~~     T     T     T     T
   S  S  E    Q      S  S  S  S  S  S  S  S
|-------15s==19-----------------------19p12-|
|----17-------------17p12h17p12-------------|
|-16----------------------------16p12-------|
|-------------------------------------------|
|-------------------------------------------|
|-------------------------------------------|
|
| Gtr II
|        PM-----|    PM------------------|
|  E     S S  S S E  S  S  S  S  S  S  S  S
|-------------------------------------------|
|-------------------------------------------|
|-------------------------------------------|
|--9--------------9-------------------------|
|--7-----7-7--7-7-7--7--7--7--7--7--7--7--7-|
|-------------------------------------------|


                                              G5
   T     T     T     T     T          ~~
   S  S  S  S  S  S  S  S  S  S  E    Q        E  E   E    E  E    E    E   E
|-19p12-19p12-------------------------------|-15s10s==3s==19s15s==10s==12s==3----|
|-------------17p12-17p12-------12s==17-----|------------------------------------|
|-------------------------16p12-------------|------------------------------------|
|-------------------------------------------|------------------------------------|
|-------------------------------------------|------------------------------------|
|-------------------------------------------|------------------------------------|
|
|        PM------|         PM------|    PM|       PM----|     PM--------------|
|  E     S  S  S  S  E     S  S  S S  E S S    E  S S S S  E  S S  S S  S S S S
|-------------------------------------------|------------------------------------|
|-------------------------------------------|------------------------------------|
|-------------------------------------------|------------------------------------|
|--9-----------------9----------------9-----|------------------------------------|
|--7-----7--7--7--7--7-----7--7--7-7--7-7-7-|--5-----------5---------------------|
|-------------------------------------------|--3--3-3-3-3--3--3-3--3-3--3-3-3-3--|


                                        D5
      T                ~~~~              T                       T
   S  S  S  S  E   E   H                 S  S  S  S  S  S  S  S  S  S  S  S  S  S  S  S
|-14-15p14p12-------------------------|-17p15p14----------15h17-19p17p15----------------|
|-------------15s==8s[20]-------------|----------15----15----------------17----------15-|
|-------------------------------------|-------------14----------------------16----16----|
|-------------------------------------|----------------------------------------17-------|
|-------------------------------------|-------------------------------------------------|
|-------------------------------------|-------------------------------------------------|
|
|        PM------|     PM-----|   PM|          PM------|         PM------------------|
|  E     S  S  S S E   S  S S S E S S    E     S  S  S  S  E     S  S  S  S  S  S  S  S
|-------------------------------------|-------------------------------------------------|
|-------------------------------------|-------------------------------------------------|
|-------------------------------------|-------------------------------------------------|
|-------------------------------------|--7-----------------7----------------------------|
|--5---------------5------------5-----|--5-----5--5--5--5--5-----5--5--5--5--5--5--5--5-|
|--3-----3--3--3-3-3---3--3-3-3-3-3-3-|-------------------------------------------------|


   T     T           T     T     T     T     T
   S  S  S  S  S  S  S  S  S  S  S  S  S  S  S  S
|---------------------------------------------------|
|-17p15-------------------------------17p15-17p15---|
|-------16p14p12h14-16p14-17p16-17p16---------------|
|---------------------------------------------------|
|---------------------------------------------------|
|---------------------------------------------------|
|
|        PM------|         PM------|         PM|
|  E     S  S  S  S  E     S  S  S  S  E     S  S
|---------------------------------------------------|
|---------------------------------------------------|
|---------------------------------------------------|
|--7-----------------7-----------------7------------|
|--5-----5--5--5--5--5-----5--5--5--5--5-----5--5---|
|---------------------------------------------------|


  E5
   E    E   E   E   E     E     E    E       E   E    E  E  Q      +Q
|-13b15-7S==0---7b8r6b8r==4b6r==3\---------|-3b5-2b4==2r\0-----------------|
|------------------------------------5b7r==|===============[3]b5r=([3])b5--|
|------------------------------------------|-------------------------------|
|------------------------------------------|-------------------------------|
|------------------------------------------|-------------------------------|
|------------------------------------------|-------------------------------|
|
|       PM----|     PM-------------------|
|  E    S S S S E   S   S S   S S  S S   S   W
|------------------------------------------|-------------------------------|
|------------------------------------------|-------------------------------|
|------------------------------------------|-------------------------------|
|--9------------9--------------------------|-9-----------------------------|
|--7----7-7-7-7-7---7---7-7---7-7--7-7---7-|-7-----------------------------|
|------------------------------------------|-------------------------------|


       T               T        T
   S.  S    S    S.    S  S  S  S  S  E    E    E
|------------------------------------12s==17s==12s====|
|---------------------------13-15p13------------------|
|---------------14----16p14---------------------------|
|-14--16p==14-----------------------------------------|
|-----------------------------------------------------|
|-----------------------------------------------------|
|
|        PM-----------|         PM----------------|
|  E     S    S     S  S  E     S  S  S S  S S  S S
|-----------------------------------------------------|
|-----------------------------------------------------|
|-----------------------------------------------------|
|--9----------------------9---------------------------|
|--7-----7----7-----7--7--7-----7--7--7-7--7-7--7-7---|
|-----------------------------------------------------|


                                     G5
   E  S  S  E    E  Q        Q        S  S  S  S  S  E    S  S  S  E    E    S  S
|-15s12h14p12S==10S12s======24-----|----------15h17s19s==15-----------------------|
|----------------------------------|-------17---------------17----20s==17s==15p12-|
|----------------------------------|----16---------------------16-----------------|
|----------------------------------|-17-------------------------------------------|
|----------------------------------|----------------------------------------------|
|----------------------------------|----------------------------------------------|
|
|     PM------|     PM----|    PM|          PM------|        PM--------------------
|  E  S  S  S S  E  S S S S  E S S    E     S  S  S  S E     S  S  S S  S S  S  S
|----------------------------------|----------------------------------------------|
|----------------------------------|----------------------------------------------|
|----------------------------------|----------------------------------------------|
|--9-------------9-----------9-----|----------------------------------------------|
|--7--7--7--7-7--7--7-7-7-7--7-7-7-|--5----------------5--------------------------|
|----------------------------------|--3-----3--3--3--3-3-----3--3--3-3--3-3--3--3-|


   S  S  S  S  S  S  S  S   H
|--------------------------------------------|
|----12h15p12----------12-[12]---------------|
|-14----------12h14p12-----------------------|
|--------------------------------------------|
|--------------------------------------------|
|--------------------------------------------|
|
|------------------------------------------|
|  S  S  S  S  S  S  S  S   S  S S S S S S S
|--------------------------------------------|
|--------------------------------------------|
|--------------------------------------------|
|--------------------------------------------|
|--------------------------------------------|
|--3--3--3--3--3--3--3--3---3--3-3-3-3-3-3-3-|


  C5
   |--3--|                 |--3--|
   S  S  S  S  S  S  S  S  S  S  S  S  S  S  S  S  S  S
|----------15h17s19s17-------------15h17s19s17----------|
|-------17-------------17-------17-------------17----17-|
|----16----------------------16-------------------16----|
|-17----------------------17----------------------------|
|-------------------------------------------------------|
|-------------------------------------------------------|
|
|  W
|-------------------------------------------------------|
|-------------------------------------------------------|
|--5----------------------------------------------------|
|--5----------------------------------------------------|
|--3----------------------------------------------------|
|-------------------------------------------------------|


   T                T     T     ~~
   S   S   S    S   S  S  S  S  H
|-19p=15-(15)-(15)h17p15-17p15-17----|
|---------17---17--------------------|
|------------------------------------|
|------------------------------------|
|------------------------------------|
|------------------------------------|
|
| +W
|------------------------------------|
|------------------------------------|
|-(5)--------------------------------|
|-(5)--------------------------------|
|-(3)--------------------------------|
|------------------------------------|


  D5
   T     T     T     T     T     T     T     T     T     T     T
   |--3--|  |--3--|  |--3--|  |--3--|  |--3--|  |--3--|  |--3--|
   S  S  S  S  S  S  S  S  S  S  S  S  S  S  S  S  S  S  S  S  S  S  S
|-22p20-22p20-22p20-22p19-22p19-22p19-22p17-22p17-22p17-22p15-22p15s19-|
|----------------------------------------------------------------------|
|----------------------------------------------------------------------|
|----------------------------------------------------------------------|
|----------------------------------------------------------------------|
|----------------------------------------------------------------------|
|
|  W
|----------------------------------------------------------------------|
|----------------------------------------------------------------------|
|--7-------------------------------------------------------------------|
|--7-------------------------------------------------------------------|
|--5-------------------------------------------------------------------|
|----------------------------------------------------------------------|
|
| Gtr IV
|  W
|----------------------------------------------------------------------|
|----------------------------------------------------------------------|
|----------------------------------------------------------------------|
|----------------------------------------------------------------------|
|----------------------------------------------------------------------|
|----------------------------------------------------------------------|


   T      T     T     T     T     T     T     T     T     T     T
   |--3---|  |--3--|  |--3--|  |--3--|  |--3--|  |--3--|  |--3--|
   S   S  S  S  S  S  S  S  S  S  S  S  S  S  S  S  S  S  S  S  S  E
|-22p=19-22p19-22p19-22p17-22p17-22p17-22p15-22p15-22p15-22p14-22p14\--||
|----------------------------------------------------------------------||
|----------------------------------------------------------------------||
|----------------------------------------------------------------------||
|----------------------------------------------------------------------||
|----------------------------------------------------------------------||
|
| +W
|----------------------------------------------------------------------||
|----------------------------------------------------------------------||
|-(7)------------------------------------------------------------------||
|-(7)------------------------------------------------------------------||
|-(5)------------------------------------------------------------------||
|----------------------------------------------------------------------||
|
|  H                                    E        E        E        E
|---------------------------------------------------------7--------8---||
|------------------------------------------------8--------8--------7---||
|------------------------------------------------9---------------------||
|----------------------------------------------------------------------||
|----------------------------------------------------------------------||
|----------------------------------------------------------------------||


 Harmony
  G5                 D5                E5                B5
   W                  W                 W                W
|------------------|-----------------|-----------------|-----------------------|
|------------------|-----------------|-----------------|-----------------------|
|------------------|--7--------------|--9--------------|-----------------------|
|--5---------------|--7--------------|--9--------------|-9---------------------|
|--5---------------|--5--------------|--7--------------|-9---------------------|
|--3---------------|-----------------|-----------------|-7---------------------|
|
|  Q.    Q   Q   E    Q.   Q  E E  E    Q.    Q   Q  E   S S S S S S Q  E E E
|-10----10---8-----|-----------------|-----------------|-----------------------|
|-12----12--10--12-|-10----7--7-8-10-|-12----12--10--8-|-7h8p7h8p7h8-7--7------|
|---------------12-|-11----7--7-9--7-|-12----12--11--9-|-7h9p7h9p7h9-7--7-9-9--|
|------------------|-----------------|-----------------|------------------9-9--|
|------------------|-----------------|-----------------|-----------------------|
|------------------|-----------------|-----------------|-----------------------|
   Q.    Q   Q   E    Q.   Q  E E  E    Q.    Q   Q  E   S S S S S S Q  E E E


  C5                G5
   W                 W
|-----------------|--------------------------------|
|-----------------|--------------------------------|
|--5--------------|--------------------------------|
|--5--------------|--5-----------------------------|
|--3--------------|--5-----------------------------|
|-----------------|--3-----------------------------|
|
|  Q.   Q   Q   E    S  S  S  S  S  S  Q   E  E  E
|-----------------|-12p10h12p10h12p10-----10-12-10-|
|-------8--10--12-|-13p12h13p12h13p12-12-----------|
|--9----9---9--12-|-------------------12--12-14-12-|
|-10--------------|--------------------------------|
|-----------------|--------------------------------|
|-----------------|--------------------------------|
   Q.   Q   Q   E    S  S  S  S  S  S  Q   E  E  E


  C5                                                D5
   W                                                 W
|-------------------------------------------------|--------------------------|
|-------------------------------------------------|--------------------------|
|--5----------------------------------------------|--7-----------------------|
|--5----------------------------------------------|--7-----------------------|
|--3----------------------------------------------|--5-----------------------|
|-------------------------------------------------|--------------------------|
|
|  S  S  S  S  S  S  S  S  S  S  S  S  S  S  S  S    Q.      Q      E  E  E
|-------10-10-------10-10-12-12-10-10-12-12-15-15-|-15b17---15b17--15-17-15--|
|-12-12-10-10-12-12-10-10-12-12-10-10-12-12-13-13-|-13b15---13b15--15-17-15--|
|-12-12-------12-12-------------------------------|--------------------------|
|-------------------------------------------------|--------------------------|
|-------------------------------------------------|--------------------------|
|-------------------------------------------------|--------------------------|
   S  S  S  S  S  S  S  S  S  S  S  S  S  S  S  S    Q.      Q      E  E  E


  G5
            PM--------------|              PM--------------|              PM---|
   E        S    S     S    S     E        S    S     S    S     E        S    S
|-----------------------------------------------------------------------------------|
|-----------------------------------------------------------------------------------|
|-----------------------------------------------------------------------------------|
|-----------------------------------------------------------------------------------|
|--5------------------------------5------------------------------5------------------|
|--3--------3----3-----3----3-----3--------3----3-----3----3-----3--------3----3----|
|
|  T     T     T       T       T     T     T       T     T       T     T     T
|  |--3--|  |---3---|  |---3---|  |--3--|  |---3---|  |---3---|  |--3--|  |---3---|
|  S  S  S  S  S    S  S  S    S  S  S  S  S  S    S  S  S    S  S  S  S  S  S    S
|-20p15-20p15-20p==15-19p15---19p15-19p15-17p15---17p15-17p==15-19p15-19p15-19p==15-|
|-22p17-22p17-22p==17-20p17---20p17-20p17-19p17---19p17-19p==17-20p17-20p17-20p==17-|
|-----------------------------------------------------------------------------------|
|-----------------------------------------------------------------------------------|
|-----------------------------------------------------------------------------------|
|-----------------------------------------------------------------------------------|


  D5
            PM--------------|              PM--------------|              PM---|
   E        S    S     S    S     E        S    S     S    S     E        S    S
|-----------------------------------------------------------------------------------|
|-----------------------------------------------------------------------------------|
|-----------------------------------------------------------------------------------|
|--7------------------------------7------------------------------7------------------|
|--5--------5----5-----5----5-----5--------5----5-----5----5-----5--------5----5----|
|-----------------------------------------------------------------------------------|
|
|  T     T     T       T       T     T     T       T     T       T     T     T
|  |--3--|  |---3---|  |---3---|  |--3--|  |---3---|  |---3---|  |--3--|  |---3---|
|  S  S  S  S  S    S  S  S    S  S  S  S  S  S    S  S  S    S  S  S  S  S  S    S
|-17p10-17p10-17p==10-15p10---15p10-15p10-14p10---14p10-14p==10-12p10-12p10-12p==10-|
|-19p12-19p12-19p==12-17p12---17p12-17p12-15p12---15p12-15p==12-13p12-13p12-13p==12-|
|-----------------------------------------------------------------------------------|
|-----------------------------------------------------------------------------------|
|-----------------------------------------------------------------------------------|
|-----------------------------------------------------------------------------------|


  E5                                B5
      PM----|    PM-----|     PM|          PM------|         PM-----|    PM|
   E  S S S S  E S S  S S  E  S S    E     S  S  S  S  E     S  S S S E  S S
|---------------------------------|------------------------------------------|
|---------------------------------|------------------------------------------|
|---------------------------------|------------------------------------------|
|--9-----------9-----------9------|------------------------------------------|
|--7--7-7-7-7--7-7-7--7-7--7--7-7-|--9-----------------9--------------9------|
|---------------------------------|--7-----7--7--7--7--7-----7--7-7-7-7--7-7-|
|
|  Q.          Q      E    E  E      S  S  S  S  S  S  S  S  Q.          E
|-12----------12-----10----8------|-10-10-------10-10-15-15-15----------12---|
|-13----------13-----12---10-12---|-12-12-12-12-12-12-15----------------12---|
|----------------------------12---|-------12-12------------------------------|
|---------------------------------|------------------------------------------|
|---------------------------------|------------------------------------------|
|---------------------------------|------------------------------------------|
   Q.          Q      E    E  E      S  S  S  S  S  S  H                 E


  C5
         PM------|         PM------|        PM|
   E     S  S  S  S  E     S  S  S S  E     S  S
|-------------------------------------------------|
|-------------------------------------------------|
|-------------------------------------------------|
|--5-----------------5----------------5-----------|
|--3-----3--3--3--3--3-----3--3--3-3--3-----3--3--|
|-------------------------------------------------|
|
|  S  S  S  S  S  S  S  S  S  S  S S  S  S  S  S
|-15-14-12-10-14-12-10--8-12-10--8-7--------------|
|-17-15-13-12-15-13-12-10-13-12-10-8-15-13-12-10--|
|------------------------------------16-14-12-11--|
|-------------------------------------------------|
|-------------------------------------------------|
|-------------------------------------------------|
   S  S  S  S  S  S  S  S  S  S  S S  S  S  S  S


  G5
         PM------|        PM-----|        PM|
   E     S  S  S  S  E    S  S S S  E     S  S
|----------------------------------------------|
|----------------------------------------------|
|----------------------------------------------|
|----------------------------------------------|
|--5-----------------5--------------5----------|
|--3-----3--3--3--3--3----3--3-3-3--3-----3--3-|
|
|  S  S  S  S  S  S  S S  S  S S S  S  S  S  S
|----------------------------------------------|
|-15-13-12-10-13-12-10-8-12-10-8-7-------------|
|-16-14-12-11-14-12-11-9-12-11-9-7-14-12-11--9-|
|----------------------------------16-14-12-10-|
|----------------------------------------------|
|----------------------------------------------|
   S  S  S  S  S  S  S S  S  S S S  S  S  S  S


  C5                    D5
   Q.    E +H            W
|---------------------|------------------||
|---------------------|------------------||
|--5-----5-(5)--------|--7---------------||
|--5-----5-(5)--------|--7---------------||
|--3-----3-(3)--------|--5---------------||
|---------------------|------------------||
|
|  Q.    Q      Q   E    Q.    Q.    Q
|-10----10------8-----|------------------||
|-12----12-----10--12-|-10----12----13---||
|------------------12-|-------12----14---||
|---------------------|-12---------------||
|---------------------|------------------||
|---------------------|------------------||
   Q.    Q      Q   E    Q.    Q.    Q


 Chorus
  G5
  Gtrs I, II
   Q  Q  H      W          W          W
|-------------|----------|----------|------|
|-------------|----------|----------|------|
|-------------|----------|----------|------|
|--5----------|----------|----------|------|
|--5----------|----------|----------|------|
|--3----------|----------|----------|------|
|
| Gtr IV
|  Q  Q  H      W          W          W
|-------------|----------|----------|------|
|-15----------|----------|----------|------|
|-16----------|----------|----------|------|
|-------------|----------|----------|------|
|-------------|----------|----------|------|
|-------------|----------|----------|------|


                                   D5    A5      D5/E
  W          W          W           H     Q.      +S  S
|----------|----------|----------|------------------------|
|----------|----------|----------|------------------------|
|----------|----------|----------|------------------------|
|----------|----------|----------|-12s====7-------(7)s0---|
|----------|----------|----------|-12s====7-------(7)s0---|
|----------|----------|----------|-10s====5-------(5)s0---|
|
| W          W          W           H     Q    Q
|----------|----------|----------|------------------------|
|----------|----------|----------|-------12---13----------|
|----------|----------|----------|------------------------|
|----------|----------|----------|------------------------|
|----------|----------|----------|------------------------|
|----------|----------|----------|------------------------|


    G5                               D5
        PM----|     PM----|    PM|       PM----|     PM----|    PM|
     E  S S S S  E  S S S S  E S S    E  S S S S  E  S S S S  E S S
||---------------------------------|--------------------------------|
||o--------------------------------|--------------------------------|
||---------------------------------|--------------------------------|
||---------------------------------|--7-----------7-----------7-----|
||o--5-----------5-----------5-----|--5--5-5-5-5--5--5-5-5-5--5-5-5-|
||---3--3-3-3-3--3--3-3-3-3--3-3-3-|--------------------------------|
|
|    Q.          Q.          Q        Q.          Q.          Q
||--10----------10-----------------|--------------------------------|
||o-------------------------12-----|-10----------10-----------------|
||---------------------------------|-------------------------12-----|
||---------------------------------|--------------------------------|
||o--------------------------------|--------------------------------|
||---------------------------------|--------------------------------|


  E5                               B5
      PM----|     PM----|    PM|       PM----|     PM----|    PM|
   E  S S S S  E  S S S S  E S S    E  S S S S  E  S S S S  E S S
|--------------------------------|-----------------------------------|
|--------------------------------|-----------------------------------|
|--------------------------------|-----------------------------------|
|--9-----------9-----------9-----|-----------------------------------|
|--7--7-7-7-7--7--7-7-7-7--7-7-7-|--9-----------9-----------9--------|
|--------------------------------|--7--7-7-7-7--7--7-7-7-7--7-7-7----|
|
|  Q.          Q.          Q        Q.          Q.          Q
|--------------------------------|-----------------------------------|
|-12----------10-----------------|-----------------------------------|
|-------------------------12-----|-11----------11----------11--------|
|--------------------------------|-----------------------------------|
|--------------------------------|-----------------------------------|
|--------------------------------|-----------------------------------|


  C5                               G5
      PM----|     PM----|    PM|       PM----|     PM----|    PM|
   E  S S S S  E  S S S S  E S S    E  S S S S  E  S S S S  E S S
|--------------------------------|--------------------------------|
|--------------------------------|--------------------------------|
|--------------------------------|--------------------------------|
|--5-----------5-----------5-----|--------------------------------|
|--3--3-3-3-3--3--3-3-3-3--3-3-3-|--5-----------5-----------5-----|
|--------------------------------|--3--3-3-3-3--3--3-3-3-3--3-3-3-|
|
|  Q.          Q.          Q        Q.          Q.          Q
|--------------------------------|--------------------------------|
|-------------------------10-----|-12----------10-----------------|
|-12----------12-----------------|-------------------------12-----|
|--------------------------------|--------------------------------|
|--------------------------------|--------------------------------|
|--------------------------------|--------------------------------|


  C5                               D5
      PM----|     PM----|    PM|
   E  S S S S  E  S S S S  E S S    W
|--------------------------------|----------------||
|--------------------------------|---------------o||
|--------------------------------|----------------||
|--5-----------5-----------5-----|--7-------------||
|--3--3-3-3-3--3--3-3-3-3--3-3-3-|--5------------o||
|--------------------------------|----------------||
|
|  Q.          Q.          Q        H     Q   Q
|--------------------------------|----------------||
|-------------10----------12-----|-10----12--13--o||
|-12-----------------------------|----------------||
|--------------------------------|----------------||
|--------------------------------|---------------o||
|--------------------------------|----------------||


  G
      PM---------------------------|
   E  S S S S  S  S S S S S  S S S S
|------------------------------------|
|------------------------------------|
|------------------------------------|
|------------------------------------|
|------------------------------------|
|--3--3-3-3-3--3--3-3-3-3-3--3-3-3-3-|
|
|  Q.          Q.            Q
|-10----------10---------------------|
|---------------------------12-------|
|------------------------------------|
|------------------------------------|
|------------------------------------|
|------------------------------------|


  D                                    E
      PM---------------------------|       PM---------------------------|
   E  S S S S  S  S S S S S  S S S S    E  S S S S  S  S S S S S  S S S S
|------------------------------------|------------------------------------|
|------------------------------------|------------------------------------|
|------------------------------------|------------------------------------|
|------------------------------------|------------------------------------|
|--5--5-5-5-5--5--5-5-5-5-5--5-5-5-5-|--7--7-7-7-7--7--7-7-7-7-7--7-7-7-7-|
|------------------------------------|------------------------------------|
|
|  Q.          Q.            Q          Q.          Q.            Q
|------------------------------------|------------------------------------|
|-10----------10---------------------|-12----------10---------------------|
|---------------------------12-------|---------------------------12-------|
|------------------------------------|------------------------------------|
|------------------------------------|------------------------------------|
|------------------------------------|------------------------------------|


      PM---------------------------|
   E  S S S S  S  S S S S S  S S S S
|------------------------------------|
|------------------------------------|
|------------------------------------|
|------------------------------------|
|------------------------------------|
|--7--7-7-7-7--7--7-7-7-7-7--7-7-7-7-|
|
|  Q.          Q.            Q
|------------------------------------|
|------------------------------------|
|-11----------11------------11-------|
|------------------------------------|
|------------------------------------|
|------------------------------------|


  C                                    G
      PM---------------------------|       PM---------------------------|
   E  S S S S  S  S S S S S  S S S S    E  S S S S  S  S S S S S  S S S S
|------------------------------------|------------------------------------|
|------------------------------------|------------------------------------|
|------------------------------------|------------------------------------|
|------------------------------------|------------------------------------|
|--3--3-3-3-3--3--3-3-3-3-3--3-3-3-3-|------------------------------------|
|------------------------------------|--3--3-3-3-3--3--3-3-3-3-3--3-3-3-3-|
|
|  Q.          Q.            Q          Q.          Q.            Q
|------------------------------------|------------------------------------|
|---------------------------10-------|-12----------10---------------------|
|-12----------12---------------------|---------------------------12-------|
|------------------------------------|------------------------------------|
|------------------------------------|------------------------------------|
|------------------------------------|------------------------------------|


  C                                    D5
      PM---------------------------|
   E  S S S S  S  S S S S S  S S S S    W
|------------------------------------|------------------||
|------------------------------------|------------------||
|------------------------------------|--7---------------||
|------------------------------------|--7---------------||
|--3--3-3-3-3--3--3-3-3-3-3--3-3-3-3-|--5---------------||
|------------------------------------|------------------||
|
|  Q.          Q.            Q          Q.    Q.    E E
|------------------------------------|------------------||
|-------------10------------12-------|-10---------------||
|-12---------------------------------|-------12----11---||
|------------------------------------|----------------9-||
|------------------------------------|------------------||
|------------------------------------|------------------||


 Outro Solo - Herman
  Q=150
  G5                   D5              E5                  B5
  Gtr I
   H     E  E S  S E   Q  Q.   E E E   Q.   Q  +S   S Q    Q   H     E  E
|--------------------|---------------|-------------------|------------------|
|--------------------|---------------|-------------------|------------------|
|--------------------|---------------|-------------------|------------------|
|-12----12-10-9h10p9-|-7---------5-7-|-9----7--(7)-10s5--|------------------|
|--------------------|----5----5-----|-------------------|-9----------------|
|--------------------|---------------|-------------------|----10----10-12---|
|
| Gtr II
|  W                   W               W                   W
|--------------------|---------------|-------------------|------------------|
|--------------------|---------------|-------------------|------------------|
|--------------------|-7-------------|-9-----------------|------------------|
|--5-----------------|-7-------------|-9-----------------|-9----------------|
|--5-----------------|-5-------------|-7-----------------|-9----------------|
|--3-----------------|---------------|-------------------|-7----------------|


  C5                      G5
   E  E  E  Q   E  E  E    Q.    S  S  Q.    S  S
|-----------------------|-------------------------|
|-----------------------|-------------------------|
|-----------------12----|-12----------12----12h14-|
|----------12--14----14-|-------12h14-------------|
|-10-12-14--------------|-------------------------|
|-----------------------|-------------------------|
|
|  W                       W
|-----------------------|-------------------------|
|-----------------------|-------------------------|
|--5--------------------|-------------------------|
|--5--------------------|--5----------------------|
|--3--------------------|--5----------------------|
|-----------------------|--3----------------------|


  C5                                                D5
               |--3--|  |--3--|  |--3--|  |--3--|
   E  E  E  E  S  S  S  S  S  S  S  S  S  S  S  S    Q.    E  Q   E  E
|-------------------------------------------------|-12-------------------|
|-12-15-12-10-------------------------------------|-------15-15--12-13---|
|-------------12h14p12-14p12h14-12h14p12-14p12h14-|----------------------|
|-------------------------------------------------|----------------------|
|-------------------------------------------------|----------------------|
|-------------------------------------------------|----------------------|
|
|  W                                                 W
|-------------------------------------------------|----------------------|
|-------------------------------------------------|----------------------|
|--5----------------------------------------------|--7-------------------|
|--5----------------------------------------------|--7-------------------|
|--3----------------------------------------------|--5-------------------|
|-------------------------------------------------|----------------------|


  G5                     D5
   H     E  E  S  S  E    Q   H     E  E
|----------------------|-----------------|
|-15----15-13-12h13p12-|-----------------|
|----------------------|-14--------12-14-|
|----------------------|-----12----------|
|----------------------|-----------------|
|----------------------|-----------------|
|
|  W                      W
|----------------------|-----------------|
|----------------------|-----------------|
|----------------------|--7--------------|
|--5-------------------|--7--------------|
|--5-------------------|--5--------------|
|--3-------------------|-----------------|


  E5                           B5
   H        E  E  S  S  S  S    E  E  E  S  S   Q.    E
|----------15----------------|--------------------------|
|----------------------------|--------------------------|
|-14b16-------14-12h14p12----|-12-------------[19]------|
|-------------------------14-|----14-12-12h14--------12-|
|----------------------------|--------------------------|
|----------------------------|--------------------------|
|
|  W                            W
|----------------------------|--------------------------|
|----------------------------|--------------------------|
|--9-------------------------|--------------------------|
|--9-------------------------|--9-----------------------|
|--7-------------------------|--9-----------------------|
|----------------------------|--7-----------------------|


  C5
                                       |--3--|
   S  S  S  S  S  S  S  S  S  S  S  S  S  S  S  S  S
|----------------------------------12-14-15-17-19-17-|
|-------------------------12-13-15-------------------|
|-------------12-14-16-17----------------------------|
|-14-16-17-19----------------------------------------|
|----------------------------------------------------|
|----------------------------------------------------|
|
|  W
|----------------------------------------------------|
|----------------------------------------------------|
|--5-------------------------------------------------|
|--5-------------------------------------------------|
|--3-------------------------------------------------|
|----------------------------------------------------|


  G5
               |-----5-----|
   S  S  S  S  S  S  S  S  S  Q      Q
|-15------------------------------------|
|----17p15h17p15------------------------|
|----------------17p14h16p14-14b16r=12--|
|---------------------------------------|
|---------------------------------------|
|---------------------------------------|
|
|  W
|---------------------------------------|
|---------------------------------------|
|---------------------------------------|
|--5------------------------------------|
|--5------------------------------------|
|--3------------------------------------|


  C5
            T                          T
            |--3--|     |--3--|        |--3--|
   S  S  S  S  S  S  S  S  S  S  S  S  S  S  S  S  S  S  S
|-------------------------------12-14-15p14p12-14-15-17-15-|
|----------------------12-13-15----------------------------|
|----12-14-16p14p12-14-------------------------------------|
|-14-------------------------------------------------------|
|----------------------------------------------------------|
|----------------------------------------------------------|
|
|  W
|----------------------------------------------------------|
|----------------------------------------------------------|
|--5-------------------------------------------------------|
|--5-------------------------------------------------------|
|--3-------------------------------------------------------|
|----------------------------------------------------------|


  D5
                 ~~
   Q.      S  S  Q   E  E
|-17b19---17p15h17--15-17-|
|-------------------------|
|-------------------------|
|-------------------------|
|-------------------------|
|-------------------------|
|
|  W
|-------------------------|
|-------------------------|
|--7----------------------|
|--7----------------------|
|--5----------------------|
|-------------------------|


  G5
   T           T     T     T        T        T     T     T        T
   |--3--|  |--3--|  |--3--|  |--3--|  |--3--|  |--3--|  |--3--|  |--3--|
   S  S  S  S  S  S  S  S  S  S  S  S  S  S  S  S  S  S  S  S  S  S  S  S
|-------------------------------------------------------------------------|
|-20p17p15----------------------15-20p15----------------------15-20p17p15-|
|----------16-17p16-19p16-17p16----------16-17p16-19p16-17p16-------------|
|-------------------------------------------------------------------------|
|-------------------------------------------------------------------------|
|-------------------------------------------------------------------------|
|
|  W
|-------------------------------------------------------------------------|
|-------------------------------------------------------------------------|
|-------------------------------------------------------------------------|
|--5----------------------------------------------------------------------|
|--5----------------------------------------------------------------------|
|--3----------------------------------------------------------------------|


  D5
      T     T     T        T     T     T
   |--3--|  |--3--|  |--3--|  |--3--|
   S  S  S  S  S  S  S  S  S  S  S  S  S  S  S  S  E.S
|-------------------------------------------------------|
|-------------------------------------------------------|
|-16-17p16-19p16-17p16S12-14p12-16p12-14p12-------------|
|-------------------------------------------14-12-14s0--|
|-------------------------------------------------------|
|-------------------------------------------------------|
|
|  W
|-------------------------------------------------------|
|-------------------------------------------------------|
|--7----------------------------------------------------|
|--7----------------------------------------------------|
|--5----------------------------------------------------|
|-------------------------------------------------------|


  E5
                                             |--3--|
   S  S  S  S  S  S  S  S  S  S  S  S  S  S  S  S  S
|-------------------------------12-14-15-17-19p17p15-|
|----------------------12-13-15----------------------|
|----------12-11-12-14-------------------------------|
|-12-14-16-------------------------------------------|
|----------------------------------------------------|
|----------------------------------------------------|
|
|  W
|----------------------------------------------------|
|----------------------------------------------------|
|--9-------------------------------------------------|
|--9-------------------------------------------------|
|--7-------------------------------------------------|
|----------------------------------------------------|


  B5
   S  S  S  S  S  S  S  S  Q       a Q
|---------------------------------------|
|-17-15-13----13----------10b12.5r=7s8--|
|----------16----16-14-12---------------|
|---------------------------------------|
|---------------------------------------|
|---------------------------------------|
|
|  W
|---------------------------------------|
|---------------------------------------|
|---------------------------------------|
|--9------------------------------------|
|--9------------------------------------|
|--7------------------------------------|


  C5
   |--3--|  |--3--|              |--3--|
   E  E  E  E  E  E  S  S  S  S  S  S  S  S  S
|-------------------------15-17-19p17p15-------|
|----------------------17----------------17----|
|-------------------17----------------------17-|
|-------------14-17----------------------------|
|-------14-15----------------------------------|
|-12-15----------------------------------------|
|
|  W
|----------------------------------------------|
|----------------------------------------------|
|--5-------------------------------------------|
|--5-------------------------------------------|
|--3-------------------------------------------|
|----------------------------------------------|


  G5                                          C5               D5
         T        T
         |--3--|
   E     S  S  S  S  S  S  S   Q        Q      Q.   E Q   Q     Q.   E  Q   E.S
|-------------------------------------------|----------------|-10----8-10--12s0--|
|-------20p17p13-17p13p12h13-[15]b17r=======|================|=10----8-10--12s0--|
|-20b24r==============================[12]--|-12----9-9--12--|-------------------|
|-------------------------------------------|----------------|-------------------|
|-------------------------------------------|----------------|-------------------|
|-------------------------------------------|----------------|-------------------|
|
|  W                                           W                W
|-------------------------------------------|----------------|-------------------|
|-------------------------------------------|----------------|-------------------|
|-------------------------------------------|--5-------------|--7----------------|
|--5----------------------------------------|--5-------------|--7----------------|
|--5----------------------------------------|--3-------------|--5----------------|
|--3----------------------------------------|----------------|-------------------|


  G5                      D5
                     ~~                      ~~
   E  E  E  E   Q    Q     E  E  E  E   Q    Q
|-----------------------|-----------------------|
|-----------------------|-------15-17-[15]--15--|
|-------12-14-[12]--12--|-14-16-----------------|
|-12-14-----------------|-----------------------|
|-----------------------|-----------------------|
|-----------------------|-----------------------|
|
|  W                       W
|-----------------------|-----------------------|
|-----------------------|-----------------------|
|-----------------------|--7--------------------|
|--5--------------------|--7--------------------|
|--5--------------------|--5--------------------|
|--3--------------------|-----------------------|


  E5                             B5
                                                                      ~~
   E  E  E  S  S  Q      Q        E     S  S  S  S  S  S  S  S  S  S  Q
|----12-15-17p15-17b19--17b19--|-17b19r==================================|
|-15---------------------------|-------19h20p19h20----17-------------15--|
|------------------------------|-------------------19----19p17p16h17-----|
|------------------------------|-----------------------------------------|
|------------------------------|-----------------------------------------|
|------------------------------|-----------------------------------------|
|
|  W                              W
|------------------------------|-----------------------------------------|
|------------------------------|-----------------------------------------|
|--9---------------------------|-----------------------------------------|
|--9---------------------------|--9--------------------------------------|
|--7---------------------------|--9--------------------------------------|
|------------------------------|--7--------------------------------------|


  C5
   T           T        T        T
   S  S  S  S  S  S  S  S  S  S  S  S  S  S  S  S
|-20p15p12----------------------------------------|
|----------13-17p13-------------------------------|
|-------------------12-17p12----------------------|
|----------------------------14-17p14p10h14p10----|
|----------------------------------------------10-|
|-------------------------------------------------|
|
|  W
|-------------------------------------------------|
|-------------------------------------------------|
|--5----------------------------------------------|
|--5----------------------------------------------|
|--3----------------------------------------------|
|-------------------------------------------------|


  G5
   T           T        T        T
   S  S  S  S  S  S  S  S  S  S  S  S  S  S  S  S
|-------------------------------------------------|
|-20p15p12----------------------------------------|
|----------12-16p12-------------------------------|
|-------------------12-17p12----------------------|
|----------------------------14-17p14p10h14p10----|
|----------------------------------------------10-|
|
|  W
|-------------------------------------------------|
|-------------------------------------------------|
|-------------------------------------------------|
|--5----------------------------------------------|
|--5----------------------------------------------|
|--3----------------------------------------------|


  C5                                  D5
 9/4
   |--3--|  |--3--|  |--3--|  |--3--|
   E  E  E  E  E  E  E  E  E  E  E  E  Q   +E   S  S  E  E  E.  E      E.
|-------------------------------15-17-17--(17)-17-15-17-15-14--15-----15--|
|-------------------15-17-15-17-------------------------------------------|
|----------14-16-17-------------------------------------------------------|
|-14-16-17----------------------------------------------------------------|
|-------------------------------------------------------------------------|
|-------------------------------------------------------------------------|
|
|  W                                   W                          +Q
|-------------------------------------------------------------------------|
|-------------------------------------------------------------------------|
|--5-----------------------------------7--------------------------(7)-----|
|--5-----------------------------------7--------------------------(7)-----|
|--3-----------------------------------5--------------------------(5)-----|
|-------------------------------------------------------------------------|


  G5
 3/4
   S   S  S  S  S  S  S  S  S  S  S  S
|-15--15-15-15-15-15-15-15-15-15-15-15-|
|--------------------------------------|
|--------------------------------------|
|--------------------------------------|
|--------------------------------------|
|--------------------------------------|
|
|  H.
|--------------------------------------|
|--------------------------------------|
|--------------------------------------|
|--5-----------------------------------|
|--5-----------------------------------|
|--3-----------------------------------|


   S   S  S  S  S  S  S  S  S  S  S  S
|-15--15-15-15-15-15-15-15-17-17-17-17-|
|--------------------------------------|
|--------------------------------------|
|--------------------------------------|
|--------------------------------------|
|--------------------------------------|
|
| +H.
|--------------------------------------|
|--------------------------------------|
|--------------------------------------|
|-(5)----------------------------------|
|-(5)----------------------------------|
|-(3)----------------------------------|


   Q    Q       +Q      +H.         +Q    +E   E  E  E
|-19---20b22===(20)--|-(20)------|-(20)r=(20)-19-17-19-|
|--------------------|-----------|---------------------|
|--------------------|-----------|---------------------|
|--------------------|-----------|---------------------|
|--------------------|-----------|---------------------|
|--------------------|-----------|---------------------|
|
| +H.                   +H.         +H.
|--------------------|-----------|---------------------|
|--------------------|-----------|---------------------|
|--------------------|-----------|---------------------|
|-(5)----------------|--(5)------|--(5)----------------|
|-(5)----------------|--(5)------|--(5)----------------|
|-(3)----------------|--(3)------|--(3)----------------|


                                                       5/4
   ~~~~~~~~~~~~~~~~~~                                                 ~~~
   H.            +H      +Q      +E   E  E  E  Q         +E   +S   S  W
|-19b20=======|=(19)----(19)r=|=(19)-17-15-17-17b19===|=(17)r(17)-15p12-----|
|-------------|---------------|-----------------------|---------------------|
|-------------|---------------|-----------------------|---------------------|
|-------------|---------------|-----------------------|---------------------|
|-------------|---------------|-----------------------|---------------------|
|-------------|---------------|-----------------------|---------------------|
|
| +H.            +H.             +H.                     +Q          +W
|-------------|---------------|-----------------------|---------------------|
|-------------|---------------|-----------------------|---------------------|
|-------------|---------------|-----------------------|---------------------|
|-(5)---------|--(5)----------|--(5)------------------|--(5)---------(5)----|
|-(5)---------|--(5)----------|--(5)------------------|--(5)---------(5)----|
|-(3)---------|--(3)----------|--(3)------------------|--(3)---------(3)----|


 3/4
   S   S  S  S  S  S  S  S S  S S S
|-----------------------------------|
|-15--13-12-13-12-10-12-10-8-10-8-7-|
|-----------------------------------|
|-----------------------------------|
|-----------------------------------|
|-----------------------------------|
|
| +H.
|-----------------------------------|
|-----------------------------------|
|-----------------------------------|
|-(5)-------------------------------|
|-(5)-------------------------------|
|-(3)-------------------------------|


                         4/4
                  ~~~~
   S   S  E      +H        +Q   S S E +H       +W
|-----------------------|--------------------|--------*|
|--8--10-10b12==(10)----|-(10)r=8p5h8-(8)----|-(8)----*|
|-----------------------|--------------------|--------*|
|-----------------------|--------------------|--------*|
|-----------------------|--------------------|--------*|
|-----------------------|--------------------|--------*|
|
| +H.                      +W                  +W
|-----------------------|--------------------|--------*|
|-----------------------|--------------------|--------*|
|-----------------------|--------------------|--------*|
|-(5)-------------------|--(5)---------------|-(5)----*|
|-(5)-------------------|--(5)---------------|-(5)----*|
|-(3)-------------------|--(3)---------------|-(3)----*|




--------------------------------------------------------------------------------


Duration Legend
---------------
W - whole; H - half; Q - quarter; E - 8th; S - 16th; T - 32nd; X - 64th; a - acciaccatura
+ - note tied to previous; . - note dotted; .. - note double dotted
Uncapitalized letters represent notes that are staccato (1/2 duration)
Irregular groupings are notated above the duration line
Duration letters will always appear directly above the note/fret number it represents the
duration for.  Duration letters with no fret number below them represent rests.  Multi-
bar rests are notated in the form Wxn, where n is the number of bars to rest for.  Low
melody durations appear below the staff

Tablature Legend
----------------
 h   - hammer-on
 p   - pull-off
 b   - bend
 pb  - pre-bend
 r   - bend release (if no number after the r, then release immediately)
 /\  - slide into or out of (from/to "nowhere")
 s   - legato slide
 S   - shift slide
 - natural harmonic
[n]  - artificial harmonic
n(n) - tapped harmonic
 ~   - vibrato
 tr  - trill
 T   - tap
 TP  - trem. picking
 PM  - palm muting
\n/  - tremolo bar dip; n = amount to dip
 \n  - tremolo bar down
 n/  - tremolo bar up
/n\  - tremolo bar inverted dip
 =   - hold bend; also acts as connecting device for hammers/pulls
 <> - volume swell (louder/softer)
 x   - on rhythm slash represents muted slash
 o   - on rhythm slash represents single note slash

Misc Legend
-----------
 |  - bar
||  - double bar
||o - repeat start
o|| - repeat end
*|  - double bar (ending)
 :  - bar (freetime)
 $  - Segno
 &  - Coda
Tempo markers -  = BPM(8/16=s8/s16), where s8 = swing 8ths, s16 = swing 16ths


            
            
Suggest correction
Creating personal tab
Creating personal tab
You can edit any tab online and save it as your Personal.

You can edit, replace or remove any tab part or add personal notes – all changes will be seen only by you.

Personal tabs can be accessed anytime from any device, even offline.
Learn more »
comments
print report bad tab
2 comments total.
0 reply
Ratt n' Roll 205 Nov 07, 2008 08:32 AM

This is the best tab of this song on here hands down. Kick ass job, 5 stars, and good job on the solo. it's not an easy solo.

0 reply
unco_no1 10 Nov 08, 2015 07:47 PM

Fuck me this tab is insane. Came for the outro solo tab, stayed for the whole damn song. Great work.

guest
You may want to rate the tab now too:
select rating
Wanna post a correction for this tab? Suggest correction