Oops, an error
Loading. Please wait.

Doing It Wrong Tab

version 1
version 1

Solo

  • Hope you enjoy this tab isnt anywhere else that can see. :).

Whole song

37 views 12 this week
no commentswrite comment
1 2 3 4 5
3 more votes to show rating
add to favorites
launch autoscroll
font size
0
reset
how to read this tab
guitar tuner
Autoscroll
slow
fast
+/-
esc
set tempo
stop
Help us to improve Ultimate-Guitar.com Take our survey!
×
Author
Difficulty
novice
About this tab version
Hope you enjoy this tab isnt anywhere else that can see. :). Was this info helpful? Yes No
[Main riff]
e|--------------------------------------------------------|
B|--------------------------------------------------------|
G|------8------8---------------8-----------8--------------|
D|----9-------9---9----------9-----------9----9-----------|
A|--7-------7--------------7----------7-------------------|
E|--------------------------------------------------------|

e|--------------------------------------------------------|
B|--------------------------------------------------------|
G|--------------------------------------------------------|
D|----8--------8-----------------8----------8-------------|
A|---9-------9---9------------9----------9-----9----------|
E|--7------7---------------7----------7-------------------|
Suggest correction
Give kudos to tab author, rate the tab!
1 2 3 4 5
comments
print report bad tab
guest
You may want to rate the tab now too:
select rating
Wanna post a correction for this tab? Suggest correction