Oops, an error
Loading. Please wait.

Fake Love tab

version 1
version 1

Whole song

by Drake
5,827 views 63 this week
no commentswrite comment
1 2 3 4 5
x 4
add to favorites
×
Save as Personal and add changes to this tab that will be seen only by you. Learn more ›
×
You can save this tab as Personal to edit and correct it or add notes. All changes will be seen only by you. Learn more »
launch autoscroll
font size
0
reset
how to read this tab
guitar tuner
edit
Autoscroll
slow
fast
+/-
esc
set tempo
stop
Author
Difficulty
CHORDS 
   Dm     Em     Fm7     Am7     Gm7    C9
e|--5------7------8------------------------------|
B|--6------8------10------5-------3------3-------|
G|--7------9------9-------5-------3------3-------|
D|--7------9------10------5-------3------2-------|
A|--5------7------8----------------------3-------|
E|------------------------5-------3--------------|

[Intro]
      Dm          Em          Fm7              Fm7   Am7
e|-----------------------------------------------------------------------|
B|-------------6-----------8--------------10----10----5------------------|
G|----------7-----------9-------------9---------9-----5------------------|
D|-------7-----------9------------10------------10----5------------------|
A|----5-----------7------------8----------------8------------------------|
E|----------------------------------------------------5------------------|

     Dm           Em         Am7           Gm7   C9
e|-----------------------------------------------------------------------|
B|-------------6-----------8-----------5----3----3-----------------------|
G|----------7-----------9-----------5-------3----3-----------------------|
D|-------7-----------9-----------5----------3----2-----------------------|
A|----5-----------7------------------------------3-----------------------|
E|----------------------------5-------------3----------------------------|

[HOOK/VERSE 1]
      Dm           Em           Fm7                Fm7  Am7
e|---------------x------------x----------------x----------------------------|
B|-------------6-x----------8-x-------------10-x---10----5------------------|
G|----------7----x-------9----x---------9------x---9-----5------------------| x= slap strings
D|-------7-------x----9-------x-----10---------x---10----5------------------|
A|----5----------x-7----------x--8-------------x---8------------------------|
E|---------------x------------x----------------x---------5------------------|
     Dm            Em           Am7           Gm7   C9
e|---------------x------------x------------x--------------------------------|
B|-------------6-x----------8-x----------5-x---3----3-----------------------|
G|----------7----x-------9----x-------5----x---3----3-----------------------|
D|-------7-------x----9-------x----5-------x---3----2-----------------------|
A|----5----------x-7----------x------------x--------3-----------------------|
E|---------------x------------x-5----------x---3----------------------------|

I've been down so long it look like up to me
They look up to me
I got fake people showin' fake love to me
Straight up to my face, straight up to my face
I've been down so long it look like up to me
They look up to me
I got fake people showin' fake love to me
Straight up to my face, straight up to my face

[Verse 1]
Somethin' ain't right when we talkin'
Somethin' ain't right when we talkin'
Look like you hidin' your problems
Really you never was all in
No you can't son me, you won't never get to run me
Just when shit look out of reach, I reach back like one, three
Like one, three, yeah

[Pre-Hook]
                 Dm
That's when they smile in my face
Em
Whole time they wanna take my place
Fm7
Whole time they wanna take my place
                      Am7              Dm
Whole time they wanna take my place
Em                                   Am
Yeah, I know they wanna take my place
                Gm7 -- C9        (quick change)    Dm
I can tell that love is fake
Em                        
I don't trust a word you say
Fm                            Am7
How you wanna clique up after your mistakes?
Dm       Em                                Am7           Gm7 -- C9
Look you in the face and it's just not the same


[HOOK/VERSE 2]
      Dm           Em           Fm7                Fm7  Am7
e|---------------x------------x----------------x----------------------------|
B|-------------6-x----------8-x-------------10-x---10----5------------------|
G|----------7----x-------9----x---------9------x---9-----5------------------| x= slap strings
D|-------7-------x----9-------x-----10---------x---10----5------------------|
A|----5----------x-7----------x--8-------------x---8------------------------|
E|---------------x------------x----------------x---------5------------------|
     Dm            Em           Am7           Gm7   C9
e|---------------x------------x------------x--------------------------------|
B|-------------6-x----------8-x----------5-x---3----3-----------------------|
G|----------7----x-------9----x-------5----x---3----3-----------------------|
D|-------7-------x----9-------x----5-------x---3----2-----------------------|
A|----5----------x-7----------x------------x--------3-----------------------|
E|---------------x------------x-5----------x---3----------------------------|

I've been down so long it look like up to me
They look up to me
I got fake people showin' fake love to me
Straight up to my face, straight up to my face
I've been down so long it look like up to me
They look up to me
I got fake people showin' fake love to me
Straight up to my face, straight up to my face

[Verse 2]
Yeah, straight up to my face, tryna play it safe
Vibe switch like night and day, I can see it like right away
I came up, you changed up, I caught that whole play
Since then, things never been the same

[Pre-Hook]
                 Dm
That's when they smile in my face
Em
Whole time they wanna take my place
Fm7
Whole time they wanna take my place
                      Am7              Dm
Whole time they wanna take my place
Em                                   Am
Yeah, I know they wanna take my place
                Gm7 -- C9        (quick change)    Dm
I can tell that love is fake
Em                        
I don't trust a word you say
Fm                            Am7
How you wanna clique up after your mistakes?
Dm       Em                                Am7           Gm7 -- C9
Look you in the face and it's just not the same


[HOOK/OUTRO]
      Dm           Em           Fm7                Fm7  Am7
e|---------------x------------x----------------x----------------------------|
B|-------------6-x----------8-x-------------10-x---10----5------------------|
G|----------7----x-------9----x---------9------x---9-----5------------------| x= slap strings
D|-------7-------x----9-------x-----10---------x---10----5------------------|
A|----5----------x-7----------x--8-------------x---8------------------------|
E|---------------x------------x----------------x---------5------------------|
     Dm            Em           Am7           Gm7   C9
e|---------------x------------x------------x--------------------------------|
B|-------------6-x----------8-x----------5-x---3----3-----------------------|
G|----------7----x-------9----x-------5----x---3----3-----------------------|
D|-------7-------x----9-------x----5-------x---3----2-----------------------|
A|----5----------x-7----------x------------x--------3-----------------------|
E|---------------x------------x-5----------x---3----------------------------|

I've been down so long it look like up to me
They look up to me
I got fake people showin' fake love to me
Straight up to my face, straight up to my face
I've been down so long it look like up to me
They look up to me
I got fake people showin' fake love to me
Straight up to my face, straight up to my face


************************************

| x  Dead note

************************************

            
            
Suggest correction
Creating personal tab
Creating personal tab
You can edit any tab online and save it as your Personal.

You can edit, replace or remove any tab part or add personal notes – all changes will be seen only by you.

Personal tabs can be accessed anytime from any device, even offline.
Learn more »
comments
print report bad tab
guest
You may want to rate the tab now too:
select rating
Wanna post a correction for this tab? Suggest correction