Oops, an error
Loading. Please wait.

Hotline Bling Tab

version 1
version 1

Intro

Whole song

Interactive

202 views 30 this week
1 commentread comment
1 2 3 4 5
x 3
add to favorites
launch autoscroll
font size
0
reset
how to read this tab
guitar tuner
Autoscroll
slow
fast
+/-
esc
set tempo
stop
Help us to improve Ultimate-Guitar.com Take our survey!
×
Author
Difficulty
novice
e|-------------------------------------------------------------------------------------------------------|
B|-------------------------------------------------------------------------------------------------------|
G|--------------10-9-------9----------10-9-------9-------------10-9-------9----------10-9-------9--------|
D|----12-12-10-------12-10---10------------12-10---10---------------12-10---10------------12-10---10-----|
A|----------------------------------------------------12---------------------------------------------12--|
E|-------------------------------------------------------------------------------------------------------|
 
e|------------------------------------------------------|
B|----13-13-13-10-13-13-15-------10-------------10------|
G|----------------------------12----12-10-12-12---------|   x2
D|------------------------------------------------------|
A|------------------------------------------------------|
E|------------------------------------------------------|

e|---------------------------------------------------------------------------|
B|----13-10-13-10-13-10-13-10-13b15r13---10-10-10-10-11-10-------------------|
G|---------------------------------------------------------12-10-12---7------|
D|---------------------------------------------------------------------------|
A|---------------------------------------------------------------------------|
E|---------------------------------------------------------------------------|

e|----------------------------------------|
B|----10-10-10-10-11-10-------------------|
G|----------------------12-10-12---7------|
D|----------------------------------------|
A|----------------------------------------|
E|----------------------------------------|
Suggest correction
Give kudos to tab author, rate the tab!
1 2 3 4 5
comments
print report bad tab
1 comment total.
0 reply
lorenzospada2002 12 Nov 21, 2016 05:59 PM

Pritty good tab
Im still a noob at guitar so I made this
Credits go to Burakcankon

Capo on 7

e|-------------------------------------------------------------------------------------------------------|
B|-------------------------------------------------------------------------------------------------------|
G|--------------3--2-------2----------3--2-------2-------------3--2-------2----------3--2-------2--------|
D|----5--5--3--------5--3----3-------------5--3----3----------------5--3----3-------------5--3----3------|
A|----------------------------------------------------5----------------------------------------------5---|
E|-------------------------------------------------------------------------------------------------------|

e|------------------------------------------------------|
B|----6--6--6--3--6--6--8--------3--------------3-------|
G|----------------------------5-----5--3--5--5----------| x2
D|------------------------------------------------------|
A|------------------------------------------------------|
E|------------------------------------------------------|

e|---------------------------------------------------------------------------|
B|----6--3--6--3--6--3--6--3----6b8r6----3--3--3--3--4--3--------------------|
G|---------------------------------------------------------5--3--5----0------|
D|---------------------------------------------------------------------------|
A|---------------------------------------------------------------------------|
E|---------------------------------------------------------------------------|

e|----------------------------------------|
B|----3--3--3--3--4--3--------------------|
G|----------------------5--3--5----0------|
D|----------------------------------------|
A|----------------------------------------|
E|----------------------------------------|

guest
You may want to rate the tab now too:
select rating
Wanna post a correction for this tab? Suggest correction