Oops, an error
Loading. Please wait.
We have Chord Pro version of Hotline Bling.
It's the closest thing you can get to the original song and it has interactive parts. Check out the tab »
×

Hotline Bling tab

version 2
version 2

Whole song

Interactive

by Drake
3,103 views 1 this week
no commentswrite comment
1 2 3 4 5
2 more votes to show rating
add to favorites
×
Save as Personal and add changes to this tab that will be seen only by you. Learn more ›
×
You can save this tab as Personal to edit and correct it or add notes. All changes will be seen only by you. Learn more »
launch autoscroll
font size
0
reset
how to read this tab
guitar tuner
edit
Autoscroll
slow
fast
+/-
esc
set tempo
stop
-------------------------------------------------------------------------------
                             HOTLINE BLING - Drake
-------------------------------------------------------------------------------
Tabbed by: rtk

Tuning: Standard
        capo 2

Chords:

    A#M7             Am7               Em7           A7sus2              A7
e|---------|    e|---------|     e|---------|     e|---------|     e|---------|
B|----3----|    B|----1----|     B|----0----|     B|----0----|     B|----2----|
G|----2----|    G|----0----|     G|----0----|     G|----0----|     G|----0----|
D|----3----|    D|----2----|     D|----0----|     D|----2----|     D|----2----|
A|----1----|    A|----0----|     A|----2----|     A|----0----|     A|----0----|
E|---------|    E|---------|     E|----0----|     E|---------|     E|---------|



        You used to call me on my cell phone                Late night when you 
e|-----------------------------------------------------------------------------------|
B|--------------------------------3-----------3--3----3----3-----3-----------3-------|
G|--------------------------------2-----------2--2----2----2-----2-----------2-------|
D|--------------------------------3-----------3--3----3----3-----3-----------3-------|
A|--------------------------------1-----------1--1----1----1-----1-----------1-------|
E|-----------------------------------------------------------------------------------|

                                  need   my    love          call me on my
e|-----------------------------------------------------------------------------------|
B|--------------------------------1------------1--1----1----1-----1----1-------------|
G|--------------------------------0------------0--0----0----0-----0----0-------------|
D|--------------------------------2------------2--2----2----2-----2----2-------------|
A|--------------------------------0------------0--0----0----0-----0----0-------------|
E|-----------------------------------------------------------------------------------|


                                  cell phone                Late night when you 
e|-----------------------------------------------------------------------------------|
B|--------------------------------3-----------3--3----3----3-----3-----------3-------|
G|--------------------------------2-----------2--2----2----2-----2-----------2-------|
D|--------------------------------3-----------3--3----3----3-----3-----------3-------|
A|--------------------------------1-----------1--1----1----1-----1-----------1-------|
E|-----------------------------------------------------------------------------------|

                                  need   my    love         I know when that
e|-----------------------------------------------------------------------------------|
B|--------------------------------1------------1--1----1----1-----1----1-------------|
G|--------------------------------0------------0--0----0----0-----0----0-------------|
D|--------------------------------2------------2--2----2----2-----2----2-------------|
A|--------------------------------0------------0--0----0----0-----0----0-------------|
E|-----------------------------------------------------------------------------------|




                                  hotline bling             that could only
e|-----------------------------------------------------------------------------------|
B|--------------------------------3------------3--3----3----3-----3------3-----------|
G|--------------------------------2------------2--2----2----2-----2------2-----------|
D|--------------------------------3------------3--3----3----3-----3------3-----------|
A|--------------------------------1------------1--1----1----1-----1------1-----------|
E|-----------------------------------------------------------------------------------|

                                  mean one thing           I know when that
e|-----------------------------------------------------------------------------------|
B|--------------------------------1------------1--1----1----1-----1----1-------------|
G|--------------------------------0------------0--0----0----0-----0----0-------------|
D|--------------------------------2------------2--2----2----2-----2----2-------------|
A|--------------------------------0------------0--0----0----0-----0----0-------------|
E|-----------------------------------------------------------------------------------|  
  
                                 hotline bling              that could only
e|-----------------------------------------------------------------------------------|
B|--------------------------------3------------3--3----3----3-----3------3-----------|
G|--------------------------------2------------2--2----2----2-----2------2-----------|
D|--------------------------------3------------3--3----3----3-----3------3-----------|
A|--------------------------------1------------1--1----1----1-----1------1-----------|
E|-----------------------------------------------------------------------------------|

                                  mean one thing    
e|-----------------------------------------------------------------------------------|
B|--------------------------------1------------1--1----------------------------------|
G|--------------------------------0------------0--0----------------------------------|
D|--------------------------------2------------2--2----------------------------------|
A|--------------------------------0------------0--0----------------------------------|
E|-----------------------------------------------------------------------------------| 



            Ever since I left the  city  
e|-----------------------------------------------------------------------------------|
B|------------1---------1---------2--------------------------------------------------|
G|------------0---------0---------0--------------------------------------------------|
D|------------2---------2---------2--------------------------------------------------|
A|------------0---------0---------0--------------------------------------------------|
E|-----------------------------------------------------------------------------------| 

           you               Got a reputation for yourself now
e|-----------------------------------------------------------------------------------|
B|---------3-----------3--3------3----3-----3-----3---1-----------1-----1------------|
G|---------2-----------2--2------2----2-----2-----2---0-----------0-----0------------|
D|---------3-----------3--3------3----3-----3-----3---2-----------2-----2------------|
A|---------1-----------1--1------1----1-----1-----1---0-----------0-----0------------|
E|-----------------------------------------------------------------------------------|

       Everybody knows and I feel left out
e|-----------------------------------------------------------------------------------|
B|---------1--1--------1-----1----0--------------------------------------------------|
G|---------0--0--------0-----0----0--------------------------------------------------|
D|---------2--2--------2-----2----0--------------------------------------------------|
A|---------0--0--------0-----0----2--------------------------------------------------|
E|--------------------------------0--------------------------------------------------| 

               Girl you got me down you got me stressed out
e|-----------------------------------------------------------------------------------|
B|-------0---0------0-------0-------0-------0--0---------------0--------------------|
G|-------0---0------0-------0-------0-------0--0---------------0----0----------------|
D|-------0---0------0-------0-------0-------0--2---------------2----2----------------|
A|-------2---2------2-------2-------2-------2--0---------------0----0----------------|
E|-------0---0------0-------0-------0-------0----------------------------------------|

            Ever since I left the  city  
e|------------------------------------------------------------------------------------|
B|------------0----------1---------2--------------------------------------------------|
G|------------0----------0---------0--------------------------------------------------|
D|------------2----------2---------2--------------------------------------------------|
A|------------0----------0---------0--------------------------------------------------|
E|------------------------------------------------------------------------------------| ......

Hook: 

Am7         Am7
These days, all I do is
A#M7                            
Wonder if you bendin' over backwards for someone else
Am7
Wonder if you're rollin' up a backwoods for someone else
A#M7
Doing things I taught you, gettin' nasty for someone else
A7sus2
You don't need no one else
A7sus2              Am7  Em7       A#M7
You don't need nobody else, no
A#M7            A#M7
Why you never alone
A#M7                    Am7 
Why you always touching road
                       Am7       Am7 
Used to always stay at home, be a good girl
             A#M7         A#M7    A#M7    
You was in a zone,                      yeah
Am7                   
You should just be yourself
Am7               Am7    Em7  A#M7
Right now, you're someone else


************************************

            
            
Suggest correction
Creating personal tab
Creating personal tab
You can edit any tab online and save it as your Personal.

You can edit, replace or remove any tab part or add personal notes – all changes will be seen only by you.

Personal tabs can be accessed anytime from any device, even offline.
Learn more »
Give kudos to tab author, rate the tab!
1 2 3 4 5
comments
print report bad tab
guest
You may want to rate the tab now too:
select rating
Wanna post a correction for this tab? Suggest correction